» » »

Brain Shake Tabs (ver.2)

Artists:  A B C D E F G H I J K L M N O P Q R S T U V W X Y Z # 

Brain Shake Tabs (ver.2)

Ac Dc
Rating:
0/5 (0 votes)

Hard to play? Try these video lessons and learn fast.
                Brain Shake by AC/DC


e--------------------------------------------------------------------------|
B----3--3--------2------------------------3--3--------2--------------------|
G-2--2--2--2--2--3---------------------2--2--2--2--2--3--------------------|
D-2--0--0--2--2--0--5-5-5-5-4-2--------2--0--0--2--2--0--5-5-5-5-4-2-------|
A-0--------0--0-----------------5-4-2--0--------0--0-----------------5-4-2-|
E--------------------------------------------------------------------------|

e-3------------|
B-3--3---------|
G-0--2--2------|
D-0--0--2------|
A-0-----0------|
E-3------------|

e-------------------------|---------------3--------|
B-----------------3-------|---------------3--3-----|
G-----0--0--0--0--2--2----|---------------0--2--2--|
D-----0--0--0--0--0--2----|---------------0--0--2--|
A--------------------0----|---------------------0--|
E-----3--3--3--3----------|---------------3--------|

MAIN VERSE RIFF
e-------------------------|
B-----------------3-------|
G-----0--0--0--0--2----2--|
D-----0--0--0--0--0----2--|
A----------------------0--|
E-----3--3--3--3----------|

e-------------------------|-----------------------------------------------|
B-------------------------|-----------------------------------------------|
G-----0----0--0--0--0--1--|--------------------------------------------1--|
D-----0----0--0--0--0--2--|--------------------------------------------2--|
A----------------------2--|------------5--5--5-5--4--2--0--------------2--|
E-----3----3--3--3--3--0--|-----------------------------------5--4--2--0--|

CHORUS IS THE SAME AS INTRO

e-------------------------|
B-------3-----3--3--3-----|
G-------2--0--2--2--0--5--|
D-------0--0--0--0--0--5--|
A----------------------3--|
E----------3--------3-----|
                                                          
e-------------------------|
B-------3--3--3-----3-----|
G-------0--2--0--5--0--2--|
D-------0--0--0--5--0--2--|
A----------------3-----0--|
E-------3-----3-----3-----|

Any corrections please comment
Thanks 
            
Hard to play? Try these video lessons and learn fast. | Correct




comments powered by Disqus
↑ Back to top | Tablatures and chords are parodies/interpretations of the original songs. You may use it for private study, scholarship, research or language learning purposes only