» » »

Boogie Man Tabs (ver.3)

Artists:  A B C D E F G H I J K L M N O P Q R S T U V W X Y Z # 

Boogie Man Tabs (ver.3)

Ac Dc
Rating:
0/5 (0 votes)

Tabs too difficult? Try these video lessons and learn fast.
                (Live)
write by rvdheavy34.this is my first tab. the solo isnt clompeted(sorry for my english im french)

-------------X5-----------------------------------------------------------|X2
-------------X5-----------------------------------------------------------|X2
---------5--7X5-------------------------------5---------------------------|X2
---7b--5-----X5--5b--5b--2h3--4--8--9---7b----5---5b--5b----2h3--4--4--2--|X2
---8---------X5-------------------------8---------------------------------|X2
-------------X5-----------------------------------------------------------|X2

-----------------------------------------------------------------------------|
-----------------------------------------------------------------------------|
--------5-----7--------------------------------------------------------------|
--7b--5-----------6p4--4---9---7--9-7-9-7-9-7-9-7--5---13b---16-14-16-14-16--|
--8----------------------------------------------------14--------------------|
-----------------------------------------------------------------------------|

------------------------------------------------------------------------------|
------------------------------------------------------------------------------|
--------12---7---7h9-----------------------------------------5----------------|
--10-----------------5h7-5h7-5h7---2h3---4--8---9---7b---5------2p0-2p0-2p0X7-|
-----------------------------------------------------8------------------------|
------------------------------------------------------------------------------|

------------------------------------------------------------------------------|
------------------------------------------------------------------------------|
------------------------------------------------------------------------------|
-----------5------------------------------------------------------------------|
--7b---5-------15b------------------------------------------------------------|
--8----------------15----14h15--17p16p13--17p16p15-17p16p15---16b---14b---15--|b
------------------------------------------------------------------------------|

------------------------------------------------------------------------------|
------------------------------------------------------------------------------|
-------15s9--9--7---------7--5-----5--3---------------------------------------|
-------------------7--7---------5-------3---7b---5--4--3---5p4p3-5p4p3--5p4p3-|
------------------------------------------------------------------------------|
------------------------------------------------------------------------------|

-------------------------------------------------|
-----------------------------------------------7-|
-----------------------------------------7--5----| MAYBE I TAB THE END LATER
--7b---------7b------------------7---5-----------|
--8---9--8---8-----------7---5-------------------|
------------------7b---5-------------------------|
            
Tabs too difficult? Try these video lessons and learn fast.


comments powered by Disqus
↑ Back to top | Tablatures and chords are parodies/interpretations of the original songs. You may use it for private study, scholarship, research or language learning purposes only