>
 >
Black Ice 2

Black Ice 2 Bass Tabs

Ac Dc - Black Ice 2 chords, tabs, tablatures, lyrics

Guitar lessons | Add/correct | Request | Top 50 tabs Artists:  A B C D E F G H I J K L M N O P Q R S T U V W X Y Z 0-9

Black Ice 2 Bass Tabs – Ac Dc

CD, Sheet music, Poster

Do you like Black Ice 2? Share with your friends now
Bass TabsBass Tabs v2Drum TabsTabsTabs v2
Intro/verse: bass comes in @ 0:09
G |----------------------------------------------------------------|
D |----------------------------------------------------------------|
A |------3------6-5-3-5-3------------------------------------------| X8
E |----5---5-5--------------5-3-4-5--------------------------------|
chorus
G |--------------------------------------------------------------------|
D |--------------------------------------------------------------------|
A |-------------3~-------5~-----5~-------3~----------------  ----------|X2
E |------5~-------------------------------------------5~---------------|
Verse
G |----------------------------------------------------------------|
D |----------------------------------------------------------------|
A |------3------6-5-3-5-3------------------------------------------| X4
E |----5---5-5--------------5-3------------------------------------|

G|--------------------------------------------------------------------------|
D|--------------------------------------------------------------------------|
A|------5-------10--9--7---9 -----------------------------------------------|
E|----7---7-7------------------ 9---7---------------------------------------|X8

G |----------------------------------------------------------------|
D |----------------------------------------------------------------|
A |------3------6-5-3-5-3------------------------------------------| X4
E |----5---5-5--------------5-3-4-5--------------------------------|

chorus
G |--------------------------------------------------------------------|
D |--------------------------------------------------------------------|
A |-------------3~-------5~-----5~-------3~----------------  ----------|
E |------5~-------------------------------------------5~---------------|X2
Bridge
G |--------------------------------------------------------------------|
D |--------------------------------------------------------------------|
A |-------------3~-------5~-----5~-------3~----------------  ----------|
E |------5~-------------------------------------------5~---------------|X2
solo
G |----------------------------------------------------------------|
D |----------------------------------------------------------------|
A |------3------6-5-3-5-3------------------------------------------| X4
E |----5---5-5--------------5-3-4-5--------------------------------|


verse
G|--------------------------------------------------------------------------|
D|--------------------------------------------------------------------------|
A|------5-------10--9--7---9 -----------------------------------------------|
E|----7---7-7------------------ 9---7---------------------------------------|X4


G |----------------------------------------------------------------|
D |----------------------------------------------------------------|
A |------3------6-5-3-5-3------------------------------------------| X4
E |----5---5-5--------------5-3-4-5--------------------------------|

Chorus
G |--------------------------------------------------------------------|
D |--------------------------------------------------------------------|
A |-------------3~-------5~-----5~-------3~----------------  ----------|
E |------5~-------------------------------------------5~---------------|X4

Ending
G |----------------------------------------------------------------|
D |----------------------------------------------------------------|
A |------3------6-5-3-5-3------------------------------------------| X4
E |----5---5-5--------------5-3-4-5--------------------------------|

G|------------------------------------------------|
D|------------------------------------------------|
A|---3--------------------------------------------|
E|-5---5-5-5-5------------------------------------| repeat till end





Comments


Popular Ac Dc tabs & chords
Deep In The Hole Tabs
Dirty Deeds Done Dirt Cheap Tabs
For Those About To Rock Tabs
Hells Bells 3 Tabs
Highway To Hell 3 Tabs
Kissin Dynamite Tabs
Live Wire Tabs
Love Hungry Man 1 Tabs
Ruff Stuff 2 Tabs
Shake A Leg 2 Tabs


Song lyrics



↑ Back to top | Tablatures and chords are parodies/interpretations of the original songs. You may use it for private study, scholarship, research or language learning purposes only
© 2014 AZChords.com Contact us | Privacy policy | DMCA | Add/correct tabs | Request tabs | Top 50 tabs