>
 >
Black Ice

Black Ice Bass Tabs

Ac Dc - Black Ice chords, tabs, tablatures, lyrics

Guitar lessons | Add/correct | Request | Top 50 tabs Artists:  A B C D E F G H I J K L M N O P Q R S T U V W X Y Z 0-9

Black Ice Bass Tabs – Ac Dc

CD, Sheet music, Poster

Do you like Black Ice? Share with your friends now
Bass TabsBass Tabs v2Drum TabsTabsTabs v2
----------------------------------------------------------------------------
			     AD DC - BLACK ICE
----------------------------------------------------------------------------

Tuning:STANDARD

Guitar plays the intro bass comes in just after the drums

This is the main riff through most of the song
verse 1:
G|-------------------------------|
D|-------------------------------|
A|--0--h3--0--0--6--p4--0--5--3--|  X8
E|-------------------------------|

Chorus: let each note ring
G|--------------------------------------------|
D|--------------------------------------------| X2
A|--0-----3-----5-----------5-----3-----0-----|
E|--------------------------------------------|

verse 2:
G|-------------------------------|
D|-------------------------------|
A|--0--h3--0--0--6--p4--0--5--3--|  X4
E|-------------------------------|

G|--0--h3--0--0--6--p4--0--5--3-----|
D|----------------------------------|  X8
A|----------------------------------|
E|----------------------------------|

G|-------------------------------|
D|-------------------------------|
A|--0--h3--0--0--6--p4--0--5--3--|  X4
E|-------------------------------|

chorus
G|--------------------------------------------|
D|--------------------------------------------| X2
A|--0-----3-----5-----------5-----3-----0-----|
E|--------------------------------------------|


through guitar riff
G|--------------------------------------------|
D|--------------------------------------------| X4
A|--0-----3-----5-----------5-----3-----0-----|
E|--------------------------------------------|

G|-------------------------------|
D|-------------------------------|
A|--0--h3--0--0--6--p4--0--5--3--|  X4
E|-------------------------------|

G|--0--h3--0--0--6--p4--0--5--3------|
D|-----------------------------------|   X4
A|-----------------------------------|
E|-----------------------------------|

G|-------------------------------|
D|-------------------------------|
A|--0--h3--0--0--6--p4--0--5--3--|  X4
E|-------------------------------|

G|--------------------------------------------|
D|--------------------------------------------| X4
A|--0-----3-----5-----------5-----3-----0-----|
E|--------------------------------------------|

G|-------------------------------|
D|-------------------------------|
A|--0--h3--0--0--6--p4--0--5--3--|  X4
E|-------------------------------|

G|-------------------------------|
D|-------------------------------|
A|--0--h3--0-0-0-0-0-0-----------|  till end of the song
E|-------------------------------|


| h  hammer-on
| p  pull-off

===============================================================================





Comments


Popular Ac Dc tabs & chords
Fly On The Wall Bass Tabs
Ride On Chords
Shoot To Thrill Chords
Cant Stand Still Drum Tabs
Damned Tabs
Dt 1 Tabs
Hells Bells 5 Tabs
Moneytalks 7 Tabs
Riff Raff Tabs
Rockin In The Parlour Tabs


Song lyrics



↑ Back to top | Tablatures and chords are parodies/interpretations of the original songs. You may use it for private study, scholarship, research or language learning purposes only
© 2014 AZChords.com Contact us | Privacy policy | DMCA | Add/correct tabs | Request tabs | Top 50 tabs