>
 >
Black Ice

Black Ice Guitar Tabs

Ac Dc - Black Ice chords, tabs, tablatures, lyrics

Guitar lessons | Add/correct | Request | Top 50 tabs Artists:  A B C D E F G H I J K L M N O P Q R S T U V W X Y Z 0-9

Black Ice Guitar Tabs – Ac Dc

CD, Sheet music, Poster

Do you like Black Ice? Share with your friends now
Bass TabsBass Tabs v2Drum TabsTabsTabs v2
                                                 Black Ice



Tuning:

e|--
B|--
G|--
D|--
A|--
E|--

Intro

    A  C  A A  D# D C  D C
e|------------------------------|
B|------------------------------|
G|--2--5--2-2---8s7---7-5-------|
D|-----5--2-2---8s7---7-5--7-5--|
A|------------------------------|
E|------------------------------|   *X4*

    A  C  A A   D#   D  C
e|-------------------------|
B|-------------------------|
G|--2--5--2-2---8----7--5--|
D|-----5--2-2---8----7--5--|
A|-------------------------|
E|-------------------------|   *X4*

Verse

    A  C  A A   D#   D  C
e|-------------------------|
B|-------------------------|
G|--2--5--2-2---8----7--5--|
D|-----5--2-2---8----7--5--|
A|-------------------------|
E|-------------------------|   *X4*

Chorus

    A5  C5  D5     D5  C5  A5
e|------------------------------|
B|------------------------------|
G|------5---7------7---5--------|
D|--7---5---7------7---5---7----|
A|--7---3---5------5---3---7----|
E|--5----------------------5----|   *X2*

Bridge


    A  C  A A   D# C D  C
e|----------------------------|
B|----------------------------|
G|--2--5--2-2---8---7--5------|
D|-----5--2-2---8---7--5------|
A|----------------------------|
E|-----------------------5-3--|   *X4*

A Second guitar plays this riff with the above riff

e|----------------11-----10------------|
B|--10-13-10--10------13----13-10------|
G|---------------------------------12--|
D|-------------------------------------|
A|-------------------------------------|
E|-------------------------------------|   *X4*

Back To 1 guitar

    B  D  B B   F    E D
e|-----------------------------|
B|-----------------------------|
G|--4--7--4-4---10---9-7-------|
D|-----7--4-4---10---9-7--9-7--|
A|-----------------------------|
E|-----------------------------|   *X8*

Another Verse


    A  C  A A   D#   D  C
e|-------------------------|
B|-------------------------|
G|--2--5--2-2---8----7--5--|
D|-----5--2-2---8----7--5--|
A|-------------------------|
E|-------------------------|   *X4*


Chorus

Much faster this time

    A5 C5 D5   D5 C5 A5
e|------------------------|
B|------------------------|
G|-----5--7----7--5-------|
D|--7--5--7----7--5--7----|
A|--7--3--5----5--3--7----|
E|--5----------------5----|   *X4*

During 3rd Time through, This mini-solo is played.


e|----------------------------------------|
B|--8b10-8b10-8-10-8-10~~-----------------|
G|------------------------9-7-------------|
D|----------------------------9b10--7~~~--|
A|----------------------------------------|
E|----------------------------------------|

Solo

Lead Part

e|--------15-------------------------------------------------------------------------------|
B|--15b17----15b17--15b17-15b17---15b17-15b17-15b17-15b17-15b17-15b17-15b17-15b17-15b17\b--|
G|-----------------------------------------------------------------------------------------|
D|-----------------------------------------------------------------------------------------|
A|-----------------------------------------------------------------------------------------|
E|-----------------------------------------------------------------------------------------|


e|-----12-14b15--12-14----12----12----12-12----12-------15----13p0--15b17--15-12--15-15b17~~~--|
B|--13-----------------13----13----13-------13----13-13----12----------------------------------|
G|---------------------------------------------------------------------------------------------|
D|---------------------------------------------------------------------------------------------|
A|---------------------------------------------------------------------------------------------|
E|---------------------------------------------------------------------------------------------|


Rhythm Part

    A  C  A A   D#   D  C
e|-------------------------|
B|-------------------------|
G|--2--5--2-2---8----7--5--|
D|-----5--2-2---8----7--5--|
A|-------------------------|
E|-------------------------|   *X4*

Repeat part of Bridge

    B  D  B B   F    E D
e|-----------------------------|
B|-----------------------------|
G|--4--7--4-4---10---9-7-------|
D|-----7--4-4---10---9-7--9-7--|
A|-----------------------------|
E|-----------------------------|   *X4*


Another Verse

    A  C  A A   D#   D  C
e|-------------------------|
B|-------------------------|
G|--2--5--2-2---8----7--5--|
D|-----5--2-2---8----7--5--|
A|-------------------------|
E|-------------------------|   *X4*


A third Chorus


    A5 C5 D5   D5 C5 A5
e|------------------------|
B|------------------------|
G|-----5--7----7--5-------|
D|--7--5--7----7--5--7----|
A|--7--3--5----5--3--7----|
E|--5----------------5----|   *X4*


A Second guitar enters and plays this all four times:


e|------8~-10~~~--10~-8~-----------8~-10~~~----------------|
B|--10~-----------------10~~~--10~----------10~-10~-10~~~--|
G|---------------------------------------------------------|
D|---------------------------------------------------------|
A|---------------------------------------------------------|
E|---------------------------------------------------------|


Solo 2

Lead Part

e|-----15-\b----------17-------17------12----15-----------------------------------------------|
B|--15b17-\b----15b17----15b17------13----13----13-13-13-13-13\b---13-13-13-13-13-13-13-13/b--|
G|--------------------------------------------------------------------------------------------|
D|--------------------------------------------------------------------------------------------|
A|--------------------------------------------------------------------------------------------|
E|--------------------------------------------------------------------------------------------|


Rhythm Part

   A  C  A A   D#   D  C
e|-------------------------|
B|-------------------------|
G|--2--5--2-2---8----7--5--|
D|-----5--2-2---8----7--5--|
A|-------------------------|
E|-------------------------|   *X4*


Outro


    A  C  A A   D# C D  C
e|----------------------------|
B|----------------------------|
G|--2--5--2-2---8---7--5------|
D|-----5--2-2---8---7--5------|
A|----------------------------|
E|-----------------------5-3--|   *X7*

A Second guitar plays this riff with the above riff than goes on to a riff then back to this.:

e|----------------11-----10------------|
B|--10-13-10--10------13----13-10------|
G|---------------------------------12--|
D|-------------------------------------|
A|-------------------------------------|
E|-------------------------------------|   *X2*

Riff    All 17's are from 15 bend.

e|-----15-15-15---15-15-15-15-15-15-15-15-15-15-15-15-15-15-15-15-15-15-15-15-15\b--|
B|--15b17-17-17---17-17-17-17-17-17-17-17-17-17-17-17-17-17-17-17-17-17-17-17-17\b--|
G|----------------------------------------------------------------------------------|
D|----------------------------------------------------------------------------------|
A|----------------------------------------------------------------------------------|
E|----------------------------------------------------------------------------------|


e|----------------11-----10------------|
B|--10-13-10--10------13----13-10------|
G|---------------------------------12--|
D|-------------------------------------|
A|-------------------------------------|
E|-------------------------------------|   *X3*

This is original guitar part:

    A  C  A A   D#    D     C     A
e|----------------------------------------------------------------|
B|----------------------------------------------------------------|
G|--2--5--2-2---8-----7-----5-----2222222222222----------------2--|
D|-----5--2-2---8-----7-----5-----2222222222222--Pick Slides---2--|
A|----------------------------------------------------------------|
E|----------------------------------------------------------------|


Second guitar ending:

e|----------------11---10---8------17-----15-15-15----------------------|
B|--10-13-10--10-----------------------15b17-17-17----------------------|
G|----------------------------------------------------------------------|
D|--------------------------------------------------13b15--12-----------|
A|------------------------------------------------------------15-12~~~--|
E|----------------------------------------------------------------------|

Key:

h    :hammer-on
p    :pull-off
~~~  :vibrato
s    :slide
b    :bend to note (ex. 14b16. Start at the 14th fret until you get the sound of the 
fret)
r    :Return from bend (ex. 14b16r14. From the bend, go back to sounding like the 14th fret.)





Comments


Popular Ac Dc tabs & chords
Brain Shake Bass Tabs
Let Me Put My Love Into You Drum Tabs
Down On The Borderline 1 Tabs
Fire Your Guns 1 Tabs
First Blood 1 Tabs
Heatseeker Live Tabs
Hells Bells 2 Tabs
Highway To Hell 4 Tabs
Jailbreak Tabs
Back In Black Ukulele


Song lyrics



↑ Back to top | Tablatures and chords are parodies/interpretations of the original songs. You may use it for private study, scholarship, research or language learning purposes only
© 2014 AZChords.com Contact us | Privacy policy | DMCA | Add/correct tabs | Request tabs | Top 50 tabs