>
 >
Big Jack 3

Big Jack 3 Bass Tabs

Ac Dc - Big Jack 3 chords, tabs, tablatures, lyrics

Guitar lessons | Add/correct | Request | Top 50 tabs Artists:  A B C D E F G H I J K L M N O P Q R S T U V W X Y Z 0-9

Big Jack 3 Bass Tabs – Ac Dc

CD, Sheet music, Poster

Do you like Big Jack 3? Share with your friends now
Bass TabsBass Tabs v2Bass Tabs v3TabsTabs v2Tabs v3
I saw that there were no Big Jack tabs and I thought it deserved one. So here it is.  
is one of my first tabs so.......Here it is!


(0:06)
G:------------------------------------------------------------------|
D:------------------------------------------------------------------|(X4)
A:7-9-7-5-----------------------------------------------------------|
E:--------9-7-777777777777777777777777------------------------------|

(0:38)
G:------------------------------------------------------------------|
D:------------------------------------------------------------------|(X4)
A:7-9-7-5------------------7-9-7-5----------------------------------|
E:--------9-7-777777777777---------9-7-777777777777-----------------|

(0:51)
G:---------------------------------------------------------------------|
D:---------------------------------------------------------------------|
A:--------------------------55555555--------------------------55555555-|
E:9999999999999999-33333333----------555555555555555-33333333----------|

G:---------------------------------------------------------------------|
D:---------------------------------------------------------------------|
A:--------------------------55555555--------------------------55555555-|
E:5555555555555555-33333333----------555555555555555-33333333----------|

G:------------------------------------------------------------------|
D:------------------------------------------------------------------|
A:------------------------------------------------------------------|
E:5555555555555555-5~-3~-0~-----------------------------------------|


(1:25)
G:------------------------------------------------------------------|
D:------------------------------------------------------------------|(4X)
A:7-9-7-5-----------------------------------------------------------|
E:--------9-7-777777777777777777777777------------------------------|

(1:56)
G:------------------------------------------------------------------|
D:------------------------------------------------------------------|(4X)
A:7-9-7-5------------------7-9-7-5----------------------------------|
E:--------9-7-777777777777---------9-7-777777777777-----------------|

(2:08)
G:---------------------------------------------------------------------|
D:---------------------------------------------------------------------|
A:-------------------------55555555---------------------------55555555-|
E:999999999999999-33333333----------5555555555555555-33333333----------|

G:---------------------------------------------------------------------|
D:---------------------------------------------------------------------|
A:-------------------------55555555---------------------------55555555-|
E:555555555555555-33333333----------5555555555555555-33333333----------|

G:--------------------------------------------------------------------|
D:--------------------------------------------------------------------|
A:--------------------------------------------------------------------|
E:555555555555555-3~-0~-----------------------------------------------|

(2:44)
G:--------------------------------------------------------------------|
D:--------------------------------------------------------------------|
A:7-9-7-5-----------------7-9-7-5-------------------------------------|
E:--------9-7---------------------9-7---------------------------------|

(2:48)
G:------------------------------------------------------------------------|
D:------------------------------------------------------------------------|
A:------------------77777777-------------------77777777-------------------|
E:77777777-99999999----------77777777-99999999----------77777777-99999999-|

G:------------------------------------------------------------------------|
D:------------------------------------------------------------------------|
A:77777777-------------------77777777-------------------77777777----------|
E:---------77777777-99999999----------77777777-99999999----------77777777-|

(3:12)
G:-----------------------------------------------------------------------|
D:-----------------------------------------------------------------------|
A:------------------55555555---------------------------55555555----------|
E:99999999-33333333----------5555555555555555-33333333-------------------|

G:-----------------------------------------------------------------------|
D:-----------------------------------------------------------------------|
A:--------------------------55555555----------------------------5555555--|
E:5555555555555555-33333333----------5555555555555555-33333333-----------|

G:-----------------------------------------------------------------------|
D:-----------------------------------------------------------------------|
A:--------------------5~-3~----------------------------------------------|
E:5555555555555555--3~-----------------------------5~~~~~----------------|


Enjoy!
Please Comment!
-Brad H





Comments


Popular Ac Dc tabs & chords
Dog Eat Dog 2 Bass Tabs
Fling Thing Bass Tabs
For Those About To Rock 2 Bass Tabs
Lets Get It Up Bass Tabs
Baby Please Dont Go Tabs
Big Gun 4 Tabs
Bonny Tabs
Go Down 1 Tabs
High Voltage Tabs
Rock N Roll Train Ukulele


Song lyrics



↑ Back to top | Tablatures and chords are parodies/interpretations of the original songs. You may use it for private study, scholarship, research or language learning purposes only
© 2014 AZChords.com Contact us | Privacy policy | DMCA | Add/correct tabs | Request tabs | Top 50 tabs