>
 >
Big Jack 2

Big Jack 2 Guitar Tabs

Ac Dc - Big Jack 2 chords, tabs, tablatures, lyrics

Guitar lessons | Add/correct | Request | Top 50 tabs Artists:  A B C D E F G H I J K L M N O P Q R S T U V W X Y Z 0-9

Big Jack 2 Guitar Tabs – Ac Dc

CD, Sheet music, Poster

Do you like Big Jack 2? Share with your friends now
Bass TabsBass Tabs v2Bass Tabs v3TabsTabs v2Tabs v3
AC/DC-Big Jack
Black Ice (2008) 

Intro:

   B5  E5  B5  E         E5  B5 
E|-------------0---|-----------------|-----------------|
B|-------------0---|-----------------|-----------------| *Listen closely for
G|-------------x---|---------4-------|-----------------|  the B and E 
D|-4---2---4---2---|-----2---4-------|-----------------|  strings. They're 
A|-2---2---2---2---|-----2---2-------|-----------------|  there. 
E|-----0-------0---|-----0-----------|-----------------|
 |
 | B5  E5  B5  E5        E5  B5 
E|-----------------|-----------------|-----------------|
B|-----------------|-----------------|-----------------|
G|-4-------4-------|---------4-------|-----------------|
D|-4---2---4---2---|-----2---4-------|-----------------|
A|-2---2---2---2---|-----2---2-------|-----------------|
E|-----0-------0---|-----0-----------|-----------------|

Verse 1: 

     B5                            B5    E5            
E|-----------------|-----------------|-----------------|-----------------|
B|-----------------|-----------------|-----------------|-----------------|
G|-----------------|---------------4-|-----------------|-----------------|
D|-2h4-2-0---4-----|---------------4-|---2-------------|-4-4-4-4-4-4-----|
A|-2-2-----4-2-----|---------------2-|---2-------------|-0h2-0h2-0h2-----|
E|-----------------|-----------------|---0-------------|-----------------|
 |
 | E                               B5    E5          
E|-----------------|-----------------|-----------------|-----------------|
B|-----------------|-----------------|-----------------|-----------------|
G|-----------------|---------------4-|-----------------|---4---4---4-----|
D|-2h4-2-0---------|---------------4-|---2-------------|-4-4-4-4-4-4-----|
A|-2-2-----4-2-----|---------------2-|---2-------------|-0h2-0h2-0h2-----|
E|-----------------|-----------------|---0-------------|-----------------|

     B5                            B5    E5            
E|-----------------|-----------------|-----------------|-----------------|
B|-----------------|-----------------|-----------------|-----------------|
G|-----------------|---------------4-|-----------------|-----------------|
D|-2h4-2-0---4-----|---------------4-|---2-------------|-4-4-4-4-4-4-----|
A|-2-2-----4-2-----|---------------2-|---2-------------|-0h2-0h2-0h2-----|
E|-----------------|-----------------|---0-------------|-----------------|
 |
 | E                               B5    E5          
E|-----------------|-----------------|-----------------|-----------------|
B|-----------------|-----------------|-----------------|-----------------|
G|-----------------|---------------4-|-----------------|---4---4---4-----|
D|-2h4-2-0---------|---------------4-|---2-------------|-4-4-4-4-4-4-----|
A|-2-2-----4-2-----|---------------2-|---2-------------|-0h2-0h2-0h2-----|
E|-----------------|-----------------|---0-------------|-----------------|

     B5                            B5    E5            
E|-----------------|-----------------|-----------------|-----------------|
B|-----------------|-----------------|-----------------|-----------------|
G|-----------------|---------------4-|-----------------|-----------------|
D|-2h4-2-0---4-----|---------------4-|---2-------------|-4-4-4-4-4-4-----|
A|-2-2-----4-2-----|---------------2-|---2-------------|-0h2-0h2-0h2-----|
E|-----------------|-----------------|---0-------------|-----------------|
 |
 | E                               B5    E5          
E|-----------------|-----------------|-----------------|-----------------|
B|-----------------|-----------------|-----------------|-----------------|
G|-----------------|---------------4-|-----------------|---4---4---4-----|
D|-2h4-2-0---------|---------------4-|---2-------------|-4-4-4-4-4-4-----|
A|-2-2-----4-2-----|---------------2-|---2-------------|-0h2-0h2-0h2-----|
E|-----------------|-----------------|---0-------------|-----------------|


     B5                            B5    E5            
E|-----------------|-----------------|-----------------|-----------------|
B|-----------------|-----------------|-----------------|-----------------|
G|-----------------|---------------4-|-----------------|-----------------|
D|-2h4-2-0---4-----|---------------4-|---2-------------|-4-4-4-4-4-4-----|
A|-2-2-----4-2-----|---------------2-|---2-------------|-0h2-0h2-0h2-----|
E|-----------------|-----------------|---0-------------|-----------------|
 |
 | E                               B5    E5          
E|-----------------|-----------------|-----------------|-----------------|
B|-----------------|-----------------|-----------------|-----------------|
G|-----------------|---------------4-|-----------------|---4---4---4---4-|
D|-2h4-2-0---------|---------------4-|---2-------------|-4-4-4-4-4-4---4-|
A|-2-2-----4-2-----|---------------2-|---2-------------|-0h2-0h2-0h2---2-|
E|-----------------|-----------------|---0-------------|-----------------|

Pre Chorus 1:

     B5 
E|-----------------|-----------------|-----------------|-----------------|
B|-----------------|-----------------|-----------------|-----------------|
G|---4-4-4-4-4-4-4-|---4-----------4-|---4-4-4-4-4-4-4-|---4-----------4-|
D|---4-2-4-2-x-x-4-|---4-----------4-|---4-2-4-2-x-x-4-|---4-----------4-|
A|---2-2-2-x-5-4-2-|---2-----------2-|---2-2-2-x-5-4-2-|---2-----------2-|
E|-----------------|-----------------|-----------------|-----------------| 
 |
 |     E         B5                B5      E         B5                B5
E|-----------------|-----------------|-----------------|-----------------|
B|-----------------|-----------------|-----------------|-----------------|
G|---------------4-|---4-----------4-|---------------4-|---4-----------4-|
D|---4-2h4-2-0---4-|---4-----------4-|---4-2h4-2-0---4-|---4-----------4-|
A|---2-2-2-----4-2-|---2-----------2-|---2-2-2-----4-2-|---2-----------2-|
E|-----------------|-----------------|-----------------|-----------------|

     B5                                                    
E|-----------------|-----------------|-----------------|
B|-----------------|-----------------|---------------3-|
G|---4-4-4-4-4-4-4-|---4-----------4-|---4-4-4-4-4-4-2-|
D|---4-2-4-2-x-x-4-|---4-----------4-|---4-2-4-2-x-x-0-|
A|---2-2-2-x-5-4-2-|---2-----------2-|---2-2-2-2-5-4---|
E|-----------------|-----------------|-----------------| 
 |
 |     E         B5                B5      E F#            
E|-----------------|-----------------|-----------------|
B|-----------------|-----------------|---------------10|
G|---------------4-|---4-----------4-|---------------11|
D|---4-2h4-2-0---4-|---4-----------4-|---4-2-4-2-0-----|
A|---2-2-2-----4-2-|---2-----------2-|---2-2-2-----4---|
E|-----------------|-----------------|-----------------|

Chorus 1:

Malcolm: 

      D5                                 G5                D5    D5     
E|-----------------|-----------------|-----------------|-----------------|
B|---3-3-3-3-3-3-3-|-3-3-3-3-3-3-3-3-|-----------------|---3-----3-------|
G|---2-2-2-2-2-2-2-|-2-2-2-2-2-2-2-2-|---0-----0-------|---2-----2-----2-|
D|---0-0-0-0-0-0-0-|-0-0-0-0-0-0-0-0-|---0-----0-------|---0---0-0-----2-|
A|-----------------|-----------------|---x---x-x-------|-------0-------0-|
E|-----------------|-----------------|---3---3-3-------|-----------------|

     A D   G   D A     A  
E|-----------------|-----------------|
B|-----------------|-----------------| Repeat last 4 bars 3 times.
G|---2-2---2---2-2-|---2-------2-----|  
D|---2-4---5---4-2-|---2-----0-2-----|
A|---0-0---0---0-0-|---0-----0-0-----|
E|-----------------|-----------------|

     G5                D5              A   D   G   D     A5    E5        
E|-----------------|-----------------|-----------------|-----------------|
B|-----------------|---3-----3-------|-----------------|-----------------|
G|---0-----0-------|---2-----2-----0h|-2-2-2---2---2---|-----------------|
D|---0-----0-------|---0---0-0-----0h|-2-2-4---5---4---|-2-----2---------|
A|---x---x-x-------|-------0-------0-|-0-0-0---0---0---|-0-----2---------|
E|---3---3-3-------|-----------------|-----------------|-------0---------|
 

Angus does some top-string riffing here. It's all double-digits so I will 
make it seperate from Malcolm's part. Note that I'm still using bars, just
spreading the notes out so they all fit. 

E|-------------------------|----------------------------|
B|-10-10-10-10-10-10-10-10-|h13-13-13-13-13-13-13-13-12-|
G|-11-11-11-11-11-11-11-11-|-14-14-14-14-14-14-14-14-13-|
D|-------------------------|----------------------------|
A|-------------------------|----------------------------|
E|-------------------------|----------------------------|

E|-------------------------|----------------------------|
B|----13----12-13----------|----------------------------|
G|----12----12-12-------11-|----12-----11--12-----------|
D|-----------------------0-|-----0-----0----0-----------|
A|-------------------------|--------------------------0-|
E|-------------------------|----------------------------|

E|-------------------------|----------------------------|
B|-------------------------|-------------------------12-|
G|-------------------------|-------------------------12-|
D|-11-12-11-12-11----------|-11-12-11-12-11-------------|
A|--0--0--0--0--0-12-----0-|--0--0--0--0--0-12----------|
E|-------------------------|----------------------------|

E|-------------------------|----------------------------|
B|----13----12-13----------|----------------------------|
G|----12----12-12-------11-|----12-----11--12-----------|
D|-----------------------0-|-----0-----0----0-----------|
A|-------------------------|--------------------------0-|
E|-------------------------|----------------------------|

E|-------------------------|----------------------------|
B|-------------------------|-------------------------12-|
G|-------------------------|-------------------------12-|
D|-11-12-11-12-11----------|-11-12-11-12-11-------------|
A|--0--0--0--0--0-12-----0-|--0--0--0--0--0-12----------|
E|-------------------------|----------------------------|

E|-------------------------|----------------------------|
B|----13----12-13----------|----------------------------|
G|----12----12-12-------11-|----12-----11--12-----------|
D|-----------------------0-|-----0-----0----0-----------|
A|-------------------------|--------------------------0-|
E|-------------------------|----------------------------|

E|-------------------------|----------------------------|
B|-------------------------|-------------------------12-|
G|-------------------------|-------------------------12-|
D|-11-12-11-12-11----------|-11-12-11-12-11-------------|
A|--0--0--0--0--0-12-----0-|--0--0--0--0--0-12----------|
E|-------------------------|----------------------------|

E|-------------------------|----------------------------|
B|----13----12-13----------|----------------------------|
G|----12----12-12-------11-|----12-----11--12-----------|
D|-----------------------0-|-----0-----0----0-----------|
A|-------------------------|--------------------------0-|
E|-------------------------|----------------------------|

E|-------------------------|----------------------------|
B|-------------------------|----------------------------|
G|-------------------------|--2-------------------------|
D|-11-12-11-12-11----------|--2--------2----------------|
A|--0--0--0--0--0-12-----0-|--0--------2----------------|
E|-------------------------|-----------0----------------|


Verse 2:

   B5                            B5    E5            
E|-----------------|-----------------|-----------------|-----------------|
B|-----------------|-----------------|-----------------|-----------------|
G|-----------------|---------------4-|-----------------|-----------------|
D|-2h4-2-0---4-----|---------------4-|---2-------------|-4-4-4-4-4-4-----|
A|-2-2-----4-2-----|---------------2-|---2-------------|-0h2-0h2-0h2-----|
E|-----------------|-----------------|---0-------------|-----------------|
 |
 | E                               B5    E5          
E|-----------------|-----------------|-----------------|-----------------|
B|-----------------|-----------------|-----------------|-----------------|
G|-----------------|---------------4-|-----------------|---4---4---4-----|
D|-2h4-2-0---------|---------------4-|---2-------------|-4-4-4-4-4-4-----|
A|-2-2-----4-2-----|---------------2-|---2-------------|-0h2-0h2-0h2-----|
E|-----------------|-----------------|---0-------------|-----------------|

     B5                            B5    E5            
E|-----------------|-----------------|-----------------|-----------------|
B|-----------------|-----------------|-----------------|-----------------|
G|-----------------|---------------4-|-----------------|-----------------|
D|-2h4-2-0---4-----|---------------4-|---2-------------|-4-4-4-4-4-4-----|
A|-2-2-----4-2-----|---------------2-|---2-------------|-0h2-0h2-0h2-----|
E|-----------------|-----------------|---0-------------|-----------------|
 |
 | E                               B5    E5          
E|-----------------|-----------------|-----------------|-----------------|
B|-----------------|-----------------|-----------------|-----------------|
G|-----------------|---------------4-|-----------------|---4---4---4-----|
D|-2h4-2-0---------|---------------4-|---2-------------|-4-4-4-4-4-4-----|
A|-2-2-----4-2-----|---------------2-|---2-------------|-0h2-0h2-0h2-----|
E|-----------------|-----------------|---0-------------|-----------------|

     B5                            B5    E5            
E|-----------------|-----------------|-----------------|-----------------|
B|-----------------|-----------------|-----------------|-----------------|
G|-----------------|---------------4-|-----------------|-----------------|
D|-2h4-2-0---4-----|---------------4-|---2-------------|-4-4-4-4-4-4-----|
A|-2-2-----4-2-----|---------------2-|---2-------------|-0h2-0h2-0h2-----|
E|-----------------|-----------------|---0-------------|-----------------|
 |
 | E                               B5    E5          
E|-----------------|-----------------|-----------------|-----------------|
B|-----------------|-----------------|-----------------|-----------------|
G|-----------------|---------------4-|-----------------|---4---4---4-----|
D|-2h4-2-0---------|---------------4-|---2-------------|-4-4-4-4-4-4-----|
A|-2-2-----4-2-----|---------------2-|---2-------------|-0h2-0h2-0h2-----|
E|-----------------|-----------------|---0-------------|-----------------|


     B5                            B5    E5            
E|-----------------|-----------------|-----------------|-----------------|
B|-----------------|-----------------|-----------------|-----------------|
G|-----------------|---------------4-|-----------------|-----------------|
D|-2h4-2-0---4-----|---------------4-|---2-------------|-4-4-4-4-4-4-----|
A|-2-2-----4-2-----|---------------2-|---2-------------|-0h2-0h2-0h2-----|
E|-----------------|-----------------|---0-------------|-----------------|
 |
 | E                               B5    E5          
E|-----------------|-----------------|-----------------|-----------------|
B|-----------------|-----------------|-----------------|-----------------|
G|-----------------|---------------4-|-----------------|---4---4---4---4-|
D|-2h4-2-0---------|---------------4-|---2-------------|-4-4-4-4-4-4---4-|
A|-2-2-----4-2-----|---------------2-|---2-------------|-0h2-0h2-0h2---2-|
E|-----------------|-----------------|---0-------------|-----------------|


Pre Chorus 2:

     B5
E|-----------------|-----------------|-----------------|-----------------|
B|-----------------|-----------------|-----------------|-----------------|
G|---4-4-4-4-4-4-4-|---4-----------4-|---4-4-4-4-4-4-4-|---4-----------4-|
D|---4-2-4-2-x-x-4-|---4-----------4-|---4-2-4-2-x-x-4-|---4-----------4-|
A|---2-2-2-x-5-4-2-|---2-----------2-|---2-2-2-x-5-4-2-|---2-----------2-|
E|-----------------|-----------------|-----------------|-----------------| 
 |
 |     E         B5                B5      E         B5                B5
E|-----------------|-----------------|-----------------|-----------------|
B|-----------------|-----------------|-----------------|-----------------|
G|---------------4-|---4-----------4-|---------------4-|---4-----------4-|
D|---4-2h4-2-0---4-|---4-----------4-|---4-2h4-2-0---4-|---4-----------4-|
A|---2-2-2-----4-2-|---2-----------2-|---2-2-2-----4-2-|---2-----------2-|
E|-----------------|-----------------|-----------------|-----------------|

     B5                                                    
E|-----------------|-----------------|-----------------|
B|-----------------|-----------------|---------------3-|
G|---4-4-4-4-4-4-4-|---4-----------4-|---4-4-4-4-4-4-2-|
D|---4-2-4-2-x-x-4-|---4-----------4-|---4-2-4-2-x-x-0-|
A|---2-2-2-x-5-4-2-|---2-----------2-|---2-2-2-2-5-4---|
E|-----------------|-----------------|-----------------| 
 |
 |     E         B5                B5      E F#            
E|-----------------|-----------------|-----------------|
B|-----------------|-----------------|---------------10|
G|---------------4-|---4-----------4-|---------------11|
D|---4-2h4-2-0---4-|---4-----------4-|---4-2-4-2-0-----|
A|---2-2-2-----4-2-|---2-----------2-|---2-2-2-----4---|
E|-----------------|-----------------|-----------------|

Chorus 2:

Malcolm: 

      D5                                 G5                D5    D5     
E|-----------------|-----------------|-----------------|-----------------|
B|---3-3-3-3-3-3-3-|-3-3-3-3-3-3-3-3-|-----------------|---3-----3-------|
G|---2-2-2-2-2-2-2-|-2-2-2-2-2-2-2-2-|---0-----0-------|---2-----2-----2-|
D|---0-0-0-0-0-0-0-|-0-0-0-0-0-0-0-0-|---0-----0-------|---0---0-0-----2-|
A|-----------------|-----------------|---x---x-x-------|-------0-------0-|
E|-----------------|-----------------|---3---3-3-------|-----------------|

     A D   G   D A     A  
E|-----------------|-----------------|
B|-----------------|-----------------| Repeat last 4 bars 3 times.
G|---2-2---2---2-2-|---2-------2-----|  
D|---2-4---5---4-2-|---2-----0-2-----|
A|---0-0---0---0-0-|---0-----0-0-----|
E|-----------------|-----------------|

     G5                D5              A   D   G   D     A5    E5        
E|-----------------|-----------------|-----------------|-----------------|
B|-----------------|---3-----3-------|-----------------|-----------------|
G|---0-----0-------|---2-----2-----0h|-2-2-2---2---2---|-----------------|
D|---0-----0-------|---0---0-0-----0h|-2-2-4---5---4---|-2-----2---------|
A|---x---x-x-------|-------0-------0-|-0-0-0---0---0---|-0-----2---------|
E|---3---3-3-------|-----------------|-----------------|-------0---------|

E|-------------------------|----------------------------|
B|-10-10-10-10-10-10-10-10-|h13-13-13-13-13-13-13-13-12-|
G|-11-11-11-11-11-11-11-11-|-14-14-14-14-14-14-14-14-13-|
D|-------------------------|----------------------------|
A|-------------------------|----------------------------|
E|-------------------------|----------------------------|

E|-------------------------|----------------------------|
B|----13----12-13----------|----------------------------|
G|----12----12-12-------11-|----12-----11--12-----------|
D|-----------------------0-|-----0-----0----0-----------|
A|-------------------------|--------------------------0-|
E|-------------------------|----------------------------|

E|-------------------------|----------------------------|
B|-------------------------|-------------------------12-|
G|-------------------------|-------------------------12-|
D|-11-12-11-12-11----------|-11-12-11-12-11-------------|
A|--0--0--0--0--0-12-----0-|--0--0--0--0--0-12----------|
E|-------------------------|----------------------------|

E|-------------------------|----------------------------|
B|----13----12-13----------|----------------------------|
G|----12----12-12-------11-|----12-----11--12-----------|
D|-----------------------0-|-----0-----0----0-----------|
A|-------------------------|--------------------------0-|
E|-------------------------|----------------------------|

E|-------------------------|----------------------------|
B|-------------------------|-------------------------12-|
G|-------------------------|-------------------------12-|
D|-11-12-11-12-11----------|-11-12-11-12-11-------------|
A|--0--0--0--0--0-12-----0-|--0--0--0--0--0-12----------|
E|-------------------------|----------------------------|

E|-------------------------|----------------------------|
B|----13----12-13----------|----------------------------|
G|----12----12-12-------11-|----12-----11--12-----------|
D|-----------------------0-|-----0-----0----0-----------|
A|-------------------------|--------------------------0-|
E|-------------------------|----------------------------|

E|-------------------------|----------------------------|
B|-------------------------|-------------------------12-|
G|-------------------------|-------------------------12-|
D|-11-12-11-12-11----------|-11-12-11-12-11-------------|
A|--0--0--0--0--0-12-----0-|--0--0--0--0--0-12----------|
E|-------------------------|----------------------------|

E|-------------------------|----------------------------|
B|----13----12-13----------|----------------------------|
G|----12----12-12-------11-|----12-----11--12-----------|
D|-----------------------0-|-----0-----0----0-----------|
A|-------------------------|--------------------------0-|
E|-------------------------|----------------------------|

E|-------------------------|----------------------------|
B|-------------------------|----------------------------|
G|-------------------------|--2-------------------------|
D|-11-12-11-12-11----------|--2--------2----------------|
A|--0--0--0--0--0-12-----0-|--0--------2----------------|
E|-------------------------|-----------0----------------|

 
Angus: 



     B5                                    
E|-----------------|-----------------|
B|-----------------|-----------------|
G|-----------------|-----------------|
D|-2-4-2-0---------|-----------------|
A|-2-2-----4-2-----|-----------------|
E|-----------------|-----------------| 

     B5                                    
E|-----------------|
B|-----------------|
G|---------------4-|
D|-2-4-2-0-------4-|
A|-2-2-----4-2---2-|
E|-----------------|

Guitar Solo:

Angus (Solo): 


E|--------7-7-7-7-----7---------7---|
B|--------7-7-7-7-------7-10----7---|
G|-------------------------9--------|
D|-9~~~~~---------------------------|
A|----------------------------------|
E|----------------------------------|

E|------------------------------|--------------------|
B|-7-----7-7---7-------7--------|----7-----7-7-7-----|
G|-7b----------7b--------7b-----|-9b---7b------------|
D|-------9-9-------9--------9---|----------9-9-9-----|
A|------------------------------|--------------------|
E|------------------------------|--------------------|

E|--------------------------------|-----------------------|
B|-/12-12-12---\------12~~~~10-12-|-12-10-10-10---7-------|
G|-/11-11-11---\--/13-------------|-11-11-11-11-9-7b------|
D|--------------------------------|------------------9----|
A|--------------------------------|-----------------------|
E|--------------------------------|-----------------------|

E|----------------------7-------|
B|------------------------------|
G|-7b----/9b11-9b11--------9~~~-|
D|----9-------------------------|
A|------------------------------|
E|------------------------------|

E|----------------------|--------------------7----------------|
B|-----12-12-10-12-12-\-|-----12\----12\-----7-10-7-----------|
G|-/13-11-11-11-11-11-\-|-/13-----/13----13---------9-7b------|
D|----------------------|--------------------------------9----|
A|----------------------|-------------------------------------|
E|----------------------|-------------------------------------|


          Hold Bend
E|-----------12-12-----------------------------|
B|-15b17~~~~-15-15-15--------------------------|
G|--------------------16-14----14-13----13---\-|
D|--------------------------14-------14--------|
A|---------------------------------------------|
E|---------------------------------------------|

E|-------------------------------------------|
B|/12-12-12-12-12-12-/15-15-15-15-15-15-15-/-|
G|/13-13-13-13-13-13-/14-14-14-14-14-14-14-/-|
D|-------------------------------------------|
A|-------------------------------------------|
E|-------------------------------------------|

Angus and Malcolm (Rhythm):

                     B5            D5        E5
E|-----------------|-----------------|-----------------|
B|-----------------|---------------3-|-----------------|
G|-----------------|-4-------------2-|---2-2-----------|
D|-----------------|-4-------------0-|---0-0-2---2-2---|
A|-----------------|-2---------------|-------2---2-2---|
E|-----------------|-----------------|-------0---0-0---|
 |                                                          x4
 |                   B5            D         E5        (Last 2 bars) 
E|-----------------|-----------------|-----------------|
B|-----------------|---------------3-|-----------------|
G|-----------------|-4-------------2-|-----------------|
D|-----------------|-4-------------0-|-------2---2-2---|
A|-----------------|-2-------------0-|-------2---2-2---|
E|-----------------|-----------------|-------0---0-0---|

   E5                D5    E5                D5         
E|-----------------|-----------------|-----------------|
B|-----------------|-3---------------|-------3---3-3-3-|
G|-----------------|-2---------------|-------2---2-2-2-|
D|-2-2-2-2-2-2-2-2-|-0-----2---2-2-2-|-2-2-2-0---0-0-0-|
A|-2-2-2-2-2-2-2-2-|-------2---2-2-2-|-2-2-2-----------|
E|-0-0-0-0-0-0-0-0-|-------0---0-0-0-|-0-0-0-----------|
 |
 | E5                D5    E5                D5         
E|-----------------|-----------------|-----------------|
B|-----------------|-3---------------|-------3---3---12|
G|-----------------|-2---------------|-------2---2---12|
D|-2-2-2-2-2-2-2-2-|-0-----2---2-2-2-|-2-2-2-0---0-----|
A|-2-2-2-2-2-2-2-2-|-------2---2-2-2-|-2-2-2-----------|
E|-0-0-0-0-0-0-0-0-|-------0---0-0-0-|-0-0-0-----------|

Chorus 3/Outro:

Malcolm: 

     G5                            A                  
E|-----------------|-----------------|-----------------|-----------------|
B|-----------------|---3-----3-------|-----------------|-----------------|
G|---0-----0-------|---2-----2-----2-|---2-2---2---2-2-|---2-------2-----|
D|---0-----0-------|---0---0-0-----2-|---2-4---5---4-2-|---2-----0-2-----|
A|---x---x-x-------|-------0-------0-|---0-0---0---0-0-|---0-----0-0-----| x3
E|---3---3-3-------|-----------------|-----------------|-----------------|

     G5                D5              A   D   G   D     A5    E5        
E|-----------------|-----------------|-----------------|-----------------|
B|-----------------|---3-----3-------|-----------------|-----------------|
G|---0-----0-------|---2-----2-----0h|-2-2-2---2---2---|-2---------------|
D|---0-----0-------|---0---0-0-----0h|-2-2-4---5---4---|-2-----2---------|
A|---x---x-x-------|-------0-------0-|-0-0-0---0---0---|-0-----2---------|
E|---3---3-3-------|-----------------|-----------------|-------0---------|

   G5                D5                A5          E5    B5 
E|-3---------------|-----------------|-----------------|-----------------|
B|-3---------------|-3---------------|-----------------|-----------------|
G|-0---------------|-2---------------|-2---------------|-4---------------|
D|-0---------------|-0---------------|-2-----------2---|-4---------------|
A|-x---------------|-----------------|-0-----------2---|-2---------------|
E|-3---------------|-----------------|-------------0---|-----------------|

Angus:  


E|-------------------------|----------------------------|
B|----13----12-13----------|----------------------------|
G|----12----12-12-------11-|----12-----11--12-----------|
D|-----------------------0-|-----0-----0----0-----------|
A|-------------------------|--------------------------0-|
E|-------------------------|----------------------------|

E|-------------------------|----------------------------|
B|-------------------------|-------------------------12-|
G|-------------------------|-------------------------12-|
D|-11-12-11-12-11-------11-|----12-11-12-11-------------|
A|--0--0--0--0--0-12-----0-|-----0--0--0--0-12----------|
E|-------------------------|----------------------------|

E|-------------------------|----------------------------|
B|----13----12-13----------|----------------------------|
G|----12----12-12-------11-|----12-----11--12-----------|
D|-----------------------0-|-----0-----0----0-----------|
A|-------------------------|--------------------------0-|
E|-------------------------|----------------------------|

E|-------------------------|----------------------------|
B|-------------------------|-------------------------12-|
G|-------------------------|-------------------------12-|
D|-11-12-11-12-11-------11-|----12-11-12-11-------------|
A|--0--0--0--0--0-12-----0-|-----0--0--0--0-12----------|
E|-------------------------|----------------------------|

E|-------------------------|----------------------------|
B|----13----12-13----------|----------------------------|
G|----12----12-12-------11-|----12-----11--12-----------|
D|-----------------------0-|-----0-----0----0-----------|
A|-------------------------|--------------------------0-|
E|-------------------------|----------------------------|

E|-------------------------|----------------------------|
B|-------------------------|-------------------------12-|
G|-------------------------|-------------------------12-|
D|-11-12-11-12-11-------11-|----12-11-12-11-------------|
A|--0--0--0--0--0-12-----0-|-----0--0--0--0-12----------|
E|-------------------------|----------------------------|

E|-------------------------|----------------------------|
B|----13----12-13----------|----------------------------|
G|----12----12-12-------11-|----12-----11--12-----------|
D|-----------------------0-|-----0-----0----0-----------|
A|-------------------------|--------------------------0-|
E|-------------------------|----------------------------|

E|-------------------------|----------------------------|
B|----13----12-13----------|----------------------------|
G|----12----12-12-------11-|----12-----11--12-----------|
D|-----------------------0-|-----0-----0----0-----------|
A|-------------------------|--------------------------0-|
E|-------------------------|----------------------------|

E|-------------------------|----------------------------|
B|-------------------------|----------------------------|
G|-------------------------|-2--------------------------|
D|-11-12-11-12-11----------|-2--------2-----------------|
A|--0--0--0--0--0-12-----0-|-0--------2-----------------|
E|-------------------------|----------0-----------------|

E|-------------------|
B|-12-13-12-10-------|
G|-12-13-12-11-12-11-|
D|--------------0--0-|
A|-------------------|
E|-------------------|

E|-----------------|-----------------|
B|-----------------|-----------------|
G|-2---------------|-4---------------|
D|-2------------2--|-4---------------|
A|-0------------2--|-2---------------|
E|--------------0--|-----------------|

E|-----------------|
B|-----------------|
G|---------------4-|
D|---------------4-|
A|---------------2-|
E|-----------------|





Comments


Popular Ac Dc tabs & chords
Dog Eat Dog Bass Tabs
Hells Bells Bass Tabs
Dirty Deeds Done Cheap Chords
Anything Goes 1 Tabs
Bonny 1 Tabs
Down On The Borderline Tabs
Moneytalks 9 Tabs
Playing With Girls Tabs
Sattelite Blues Tabs
Sink The Pink 1 Tabs


Song lyrics



↑ Back to top | Tablatures and chords are parodies/interpretations of the original songs. You may use it for private study, scholarship, research or language learning purposes only
© 2014 AZChords.com Contact us | Privacy policy | DMCA | Add/correct tabs | Request tabs | Top 50 tabs