>
 >
Big Jack

Big Jack Bass Tabs

Ac Dc - Big Jack chords, tabs, tablatures, lyrics

Guitar lessons | Add/correct | Request | Top 50 tabs Artists:  A B C D E F G H I J K L M N O P Q R S T U V W X Y Z 0-9

Big Jack Bass Tabs – Ac Dc

CD, Sheet music, Poster

Do you like Big Jack? Share with your friends now
Bass TabsBass Tabs v2Bass Tabs v3TabsTabs v2Tabs v3
Bassist: Cliff Williams

Intro

   B   E   B   E             E     B
G|-----------------|-----------------|-----------------|-----------------|
D|-----------------|-----------------|-----------------|-----------------|
A|-----------------|-----------------|-----------------|-----------------|
E|-7---0---7---0---|---------0-----7-|-----------------|-----------------|

Verse 1

   E F#E D C#B  
G|-----------------|-----------------|-----------------|-----------------|
D|-----------------|-----------------|-----------------|-----------------|
A|-7-9-7-----------|-----------------|-----------------|-----------------|
E|------10-9-7-7-7-|-7-7-7-7-7-7-7-7-|-7-7-7-7-7-7-7-7-|-7-7-7-7-7-7-7-7-|

   E F#E D C#B 
G|-----------------|-----------------|-----------------|-----------------|
D|-----------------|-----------------|-----------------|-----------------|
A|-7-9-7-----------|-----------------|-----------------|-----------------|
E|------10-9-7-7-7-|-7-7-7-7-7-7-7-7-|-7-7-7-7-7-7-7-7-|-7-7-7-7-7-7-7-7-|

   E F#E D C#B 
G|-----------------|-----------------|-----------------|-----------------|
D|-----------------|-----------------|-----------------|-----------------|
A|-7-9-7-----------|-----------------|-----------------|-----------------|
E|------10-9-7-7-7-|-7-7-7-7-7-7-7-7-|-7-7-7-7-7-7-7-7-|-7-7-7-7-7-7-7-7-|

   E F#E D C#B 
G|-----------------|-----------------|-----------------|-----------------|
D|-----------------|-----------------|-----------------|-----------------|
A|-7-9-7-----------|-----------------|-----------------|-----------------|
E|------10-9-7-7-7-|-7-7-7-7-7-7-7-7-|-7-7-7-7-7-7-7-7-|-7-7-7-7-7-7-7-7-|

Pre-Chorus

   E   F#E F#E D C#  B                 E   F#E F#E D C#  B
G|-----------------|-----------------|-----------------|-----------------|
D|-----------------|-----------------|-----------------|-----------------|
A|-7---9-7-9-7-----|-----------------|-7---9-7-9-7-----|-----------------|
E|------------10-9-|-7-7-7-7-7-7-7-7-|------------10-9-|-7-7-7-7-7-7-7-7-|

   E   F#E F#E D C#  B                 E   F#E F#E D C#  D
G|-----------------|-----------------|-----------------|-----------------|
D|-----------------|-----------------|-----------------|-----------------|
A|-7---9-7-9-7-----|-----------------|-7---9-7-9-7-----|-5-5-5-5-5-5-5-5-|
E|------------10-9-|-7-7-7-7-7-7-7-7-|------------10-9-|-----------------|

Chorus

   D                 G             D                     A     
G|-----------------|-----------------|-----------------|-----------------|
D|-----------------|-----------------|-----------------|-----------------|
A|-5-5-5-5-5-5-5-5-|---------------5-|-5-5-5-5-5-5-5-5-|-----------------|
E|-----------------|-3-3-3-3-3-3-3---|-----------------|-5-5-5-5-5-5-5-5-|

   A                 G             D                     A                
G|-----------------|-----------------|-----------------|-----------------|
D|-----------------|-----------------|-----------------|-----------------|
A|-----------------|---------------5-|-5-5-5-5-5-5-5-5-|-----------------|
E|-5-5-5-5-5-5-5-5-|-3-3-3-3-3-3-3---|-----------------|-5-5-5-5-5-5-5-5-|

   A                 G             D                     A                
G|-----------------|-----------------|-----------------|-----------------|
D|-----------------|-----------------|-----------------|-----------------|
A|-----------------|---------------5-|-5-5-5-5-5-5-5-5-|-----------------|
E|-5-5-5-5-5-5-5-5-|-3-3-3-3-3-3-3---|-----------------|-5-5-5-5-5-5-5-5-|

   A                 G             D                     A                
G|-----------------|-----------------|-----------------|-----------------|
D|-----------------|-----------------|-----------------|-----------------|
A|-----------------|---------------5-|-5-5-5-5-5-5-5-5-|-----------------|
E|-5-5-5-5-5-5-5-5-|-3-3-3-3-3-3-3---|-----------------|-5-5-5-5-5-5-5-5-|

   A   E
G|-----------------|
D|-----------------|
A|-----------------|
E|-5---0-----------|

Verse 2

   E F#E D C#B  
G|-----------------|-----------------|-----------------|-----------------|
D|-----------------|-----------------|-----------------|-----------------|
A|-7-9-7-----------|-----------------|-----------------|-----------------|
E|------10-9-7-7-7-|-7-7-7-7-7-7-7-7-|-7-7-7-7-7-7-7-7-|-7-7-7-7-7-7-7-7-|

   E F#E D C#B 
G|-----------------|-----------------|-----------------|-----------------|
D|-----------------|-----------------|-----------------|-----------------|
A|-7-9-7-----------|-----------------|-----------------|-----------------|
E|------10-9-7-7-7-|-7-7-7-7-7-7-7-7-|-7-7-7-7-7-7-7-7-|-7-7-7-7-7-7-7-7-|

   E F#E D C#B 
G|-----------------|-----------------|-----------------|-----------------|
D|-----------------|-----------------|-----------------|-----------------|
A|-7-9-7-----------|-----------------|-----------------|-----------------|
E|------10-9-7-7-7-|-7-7-7-7-7-7-7-7-|-7-7-7-7-7-7-7-7-|-7-7-7-7-7-7-7-7-|

   E F#E D C#B 
G|-----------------|-----------------|-----------------|-----------------|
D|-----------------|-----------------|-----------------|-----------------|
A|-7-9-7-----------|-----------------|-----------------|-----------------|
E|------10-9-7-7-7-|-7-7-7-7-7-7-7-7-|-7-7-7-7-7-7-7-7-|-7-7-7-7-7-7-7-7-|

Pre-Chorus

   E   F#E F#E D C#  B                 E   F#E F#E D C#  B
G|-----------------|-----------------|-----------------|-----------------|
D|-----------------|-----------------|-----------------|-----------------|
A|-7---9-7-9-7-----|-----------------|-7---9-7-9-7-----|-----------------|
E|------------10-9-|-7-7-7-7-7-7-7-7-|------------10-9-|-7-7-7-7-7-7-7-7-|

   E   F#E F#E D C#  B                 E   F#E F#E D C#  D
G|-----------------|-----------------|-----------------|-----------------|
D|-----------------|-----------------|-----------------|-----------------|
A|-7---9-7-9-7-----|-----------------|-7---9-7-9-7-----|-5-5-5-5-5-5-5-5-|
E|------------10-9-|-7-7-7-7-7-7-7-7-|------------10-9-|-----------------|

Chorus

   D                 G             D                     A     
G|-----------------|-----------------|-----------------|-----------------|
D|-----------------|-----------------|-----------------|-----------------|
A|-5-5-5-5-5-5-5-5-|---------------5-|-5-5-5-5-5-5-5-5-|-----------------|
E|-----------------|-3-3-3-3-3-3-3---|-----------------|-5-5-5-5-5-5-5-5-|

   A                 G             D                     A                
G|-----------------|-----------------|-----------------|-----------------|
D|-----------------|-----------------|-----------------|-----------------|
A|-----------------|---------------5-|-5-5-5-5-5-5-5-5-|-----------------|
E|-5-5-5-5-5-5-5-5-|-3-3-3-3-3-3-3---|-----------------|-5-5-5-5-5-5-5-5-|

   A                 G             D                     A                
G|-----------------|-----------------|-----------------|-----------------|
D|-----------------|-----------------|-----------------|-----------------|
A|-----------------|---------------5-|-5-5-5-5-5-5-5-5-|-----------------|
E|-5-5-5-5-5-5-5-5-|-3-3-3-3-3-3-3---|-----------------|-5-5-5-5-5-5-5-5-|

   A                 G             D                     A                
G|-----------------|-----------------|-----------------|-----------------|
D|-----------------|-----------------|-----------------|-----------------|
A|-----------------|---------------5-|-5-5-5-5-5-5-5-5-|-----------------|
E|-5-5-5-5-5-5-5-5-|-3-3-3-3-3-3-3---|-----------------|-5-5-5-5-5-5-5-5-|

   A   E
G|-----------------|
D|-----------------|
A|-----------------|
E|-5---0-----------|

Solo

   E F#E D C#B                         E F#E D C#B
G|-----------------|-----------------|-----------------|-----------------|
D|-----------------|-----------------|-----------------|-----------------|
A|-7-9-7-----------|-----------------|-7-9-7-----------|-----------------|
E|------10-9-7-----|-----------------|------10-9-7-----|-7---------------|

   B             D         E           B             D         E
G|-----------------|-----------------|-----------------|-----------------|
D|-----------------|-----------------|-----------------|-----------------|
A|---------------5-|-5-5-5-----------|---------------5-|-5-5-5-----------|
E|-7-7-7-7-7-7-7---|-------0-0-0-0-0-|-7-7-7-7-7-7-7---|-------0-0-0-0-0-|

   B             D         E           B             D         E
G|-----------------|-----------------|-----------------|-----------------|
D|-----------------|-----------------|-----------------|-----------------|
A|---------------5-|-5-5-5-----------|---------------5-|-5-5-5-----------|
E|-7-7-7-7-7-7-7---|-------0-0-0-0-0-|-7-7-7-7-7-7-7---|-------0-0-0-0-0-|

   E                 D   A E                 D
G|-----------------|-----------------|-----------------|--------|
D|-----------------|-----------------|-----------------|--------|
A|-----------------|-5-5-------------|-------5-5-5-5-5-|-5-5-5-5|
E|-0-0-0-0-0-0-0-0-|-----5-0-0-0-0-0-|-0-0-0-----------|--------|

Chorus

   G             D                     A
G|-----------------|-----------------|-----------------|-----------------|
D|-----------------|-----------------|-----------------|-----------------|
A|---------------5-|-5-5-5-5-5-5-5-5-|-----------------|-----------------|
E|-3-3-3-3-3-3-3---|-----------------|-5-5-5-5-5-5-5-5-|-5-5-5-5-5-5-5-5-|
 
   G             D                     A
G|-----------------|-----------------|-----------------|-----------------|
D|-----------------|-----------------|-----------------|-----------------|
A|---------------5-|-5-5-5-5-5-5-5-5-|-----------------|-----------------|
E|-3-3-3-3-3-3-3---|-----------------|-5-5-5-5-5-5-5-5-|-5-5-5-5-5-5-5-5-|

   G             D                     A
G|-----------------|-----------------|-----------------|-----------------|
D|-----------------|-----------------|-----------------|-----------------|
A|---------------5-|-5-5-5-5-5-5-5-5-|-----------------|-----------------|
E|-3-3-3-3-3-3-3---|-----------------|-5-5-5-5-5-5-5-5-|-5-5-5-5-5-5-5-5-|

   G             D                     A                         E
G|-----------------|-----------------|-----------------|-----------------|
D|-----------------|-----------------|-----------------|-----------------|
A|---------------5-|-5-5-5-5-5-5-5-5-|-----------------|-----------------|
E|-3-3-3-3-3-3-3---|-----------------|-5-5-5-5-5-5-5-5-|-5-------0-------|

Outro

   G                 D                 A       E   B
G|-----------------|-----------------|-----------------|
D|-----------------|-----------------|-----------------|
A|-----------------|-5---------------|-----------------|
E|-3---------------|-----------------|-5-------0---7---|





Comments


Popular Ac Dc tabs & chords
All Screwed Up Bass Tabs
C O D Bass Tabs
Cant Stand Still Tabs
Carry Me Home Tabs
Dirty Eyes Tabs
Dog Eat Dog 2 Tabs
Meanstreak 2 Tabs
Riff Raff 1 Tabs
School Days 1 Tabs
Shake A Leg 1 Tabs


Song lyrics



↑ Back to top | Tablatures and chords are parodies/interpretations of the original songs. You may use it for private study, scholarship, research or language learning purposes only
© 2014 AZChords.com Contact us | Privacy policy | DMCA | Add/correct tabs | Request tabs | Top 50 tabs