» » »

Ac Dc, Big Gun Tabs (ver.2)

Artists:  A B C D E F G H I J K L M N O P Q R S T U V W X Y Z # 

Big Gun Tabs (ver.2)

Ac Dc Tabs
 Rating:
4/5 (4 votes)
Big Gun lessons Tabs too difficult? Try these video lessons and learn fast
1
                AC/DC "Big Gun" - Last Action Hero: The Soundtrack

Intro/Chorus: 

Riff A: (Angus) gtr. 1
|------------3---0----0--0-------|-----------3---0---0------------|
|------------------3--------3\---|-----------------3-----3\-------|
|--------------------------------|--------------------------------|
|--------------------------------|---------------------------5----|
|--------------------------------|-----------------------------5\-|
|--------------------------------|--------------------------------|
|(Malcom) gtr.2                                                   |
|--------------------------------|--------------------------------|
|--------------------------------|--------------------------------|
|--------------------------------|--------------------------------|
|--2--2--------------------------|--2--2--------------------------|
|--2--2--------------------------|--2--2--------------------------|
|--0--0--------------------------|--0--0--------------------------|

Verse:
 
Riff B: gtr. 1 and gtr. 2
|-----------------------------------------------------------------|
|-----------------------------------------------------------------|
|-----------------------------------------------------------------|
|--------0--------------------------------------------------------|4x
|------2-----0-4---0-2---0-4-----2--------------------------------|
|----0-----0-----0-----0-----0-3---3------------------------------|
|                                                                 |
|-----------------------------------------------------------------|
|-----------------------------------------------------------------|
|--------0--------------------------------------------------------|
|------2-----0-4---0-2---0-4-----2--------------------------------|2x
|----0-----0-----0-----0-----0-3---3------------------------------|
|-----------------------------------------------------------------|
|                                                                 |
|-----------------------------------------------------------------|
|-----------------------------------------------------------------|
|-----------------------------------------------------------------|
|--------0--------------------------------------------------------|2x
|------2-----0-4---0-2---0-4-----2--------------------------------|
|----0-----0-----0-----0-----0-3---3------------------------------| 

Riff D:
      B               A    B
Don't let it be wrong,     don't let it be right
 
A         G          D#/F        Em
Give into spite, and double your sights

CHORUS:

Riff A: (Angus) gtr. 1
|------------3---0----0--0-------|-----------3---0---0------------|
|------------------3--------3\---|-----------------3-----3\-------|
|--------------------------------|--------------------------------|
|--------------------------------|---------------------------5----|
|--------------------------------|-----------------------------5\-|
|--------------------------------|--------------------------------|
|(Malcom) gtr.2                                                   |2x
|--------------------------------|--------------------------------|
|--------------------------------|--------------------------------|
|--------------------------------|--------------------------------|
|--2--2--------------------------|--2--2--------------------------|
|--2--2--------------------------|--2--2--------------------------|
|--0--0--------------------------|--0--0--------------------------|

play at the end of the second time
|--------------------------------|--------------------------------|
|--------------------------------|--------------------------------|
|----0---------------------------|--------------------------------|
|------2--0------------------2---|--------------------------------|
|--------------2P0---2-0---------|--------------------------------|
|-------------------------3--0---|--------------------------------|
 
Verse:

Riff B: gtr. 1 and gtr. 2
|-----------------------------------------------------------------|
|-----------------------------------------------------------------|
|-----------------------------------------------------------------|
|--------0--------------------------------------------------------|6x
|------2-----0-4---0-2---0-4-----2--------------------------------|
|----0-----0-----0-----0-----0-3---3------------------------------|
|                                                                 |
|-----------------------------------------------------------------|
|-----------------------------------------------------------------|
|--------0--------------------------------------------------------|
|------2-----0-4---0-2---0-4-----2--------------------------------|2x
|----0-----0-----0-----0-----0-3---3------------------------------|
|-----------------------------------------------------------------|
|                                                                 |
|-----------------------------------------------------------------|
|-----------------------------------------------------------------|
|-----------------------------------------------------------------|
|--------0--------------------------------------------------------|2x
|------2-----0-4---0-2---0-4-----2--------------------------------|
|----0-----0-----0-----0-----0-3---3------------------------------| 

Chorus:

Riff A: (Angus) gtr. 1
|------------3---0----0--0-------|-----------3---0---0------------|
|------------------3--------3\---|-----------------3-----3\-------|
|--------------------------------|--------------------------------|
|--------------------------------|---------------------------5----|
|--------------------------------|-----------------------------5\-|
|--------------------------------|--------------------------------|
|(Malcom) gtr.2                                                   |2x
|--------------------------------|--------------------------------|
|--------------------------------|--------------------------------|
|--------------------------------|--------------------------------|
|--2--2--------------------------|--2--2--------------------------|
|--2--2--------------------------|--2--2--------------------------|
|--0--0--------------------------|--0--0--------------------------|

play at the end of the second time
|--------------------------------|--------------------------------|
|--------------------------------|--------------------------------|
|----0---------------------------|--------------------------------|
|------2--0------------------2~~~|--------------------------------|
|--------------2P0---2-0---------|--------------------------------|
|-------------------------3--0~~~|--------------------------------| 

solo:
|---3P0-0--(GTR 1)------------------------------------------------|
|------3----------------------------------------------------------|
|-----------------------------------------------------------------|
|---------------------------2-----5----2P0H2---(GTR 2)------------|
|-----------------------------------------------------------------|
|-----------------------------------------------------------------|
 
|-----------------------------------------------------------------|
|-----------------------------------------------------------------|
|-----------------------------------------------------------------|
|---5--4P2P0--4P2P0-2H5P2P0-----------0-----------2-----2---------|
|-----------------------------2P0---2---2P0-----------------------|
|---------------------------------3---------3-2-0---3P0-----------|

Chorus:

Riff A: (Angus) gtr. 1
|------------3---0----0--0-------|-----------3---0---0------------|
|------------------3--------3\---|-----------------3-----3\-------|
|--------------------------------|--------------------------------|
|--------------------------------|---------------------------5----|
|--------------------------------|-----------------------------5\-|
|--------------------------------|--------------------------------|
|(Malcom) gtr.2                                                   |2x
|--------------------------------|--------------------------------|
|--------------------------------|--------------------------------|
|--------------------------------|--------------------------------|
|--2--2--------------------------|--2--2--------------------------|
|--2--2--------------------------|--2--2--------------------------|
|--0--0--------------------------|--0--0--------------------------|

play at the end of the second time
|--------------------------------|--------------------------------|
|--------------------------------|--------------------------------|
|----0---------------------------|--------------------------------|
|------2--0------------------2~~~|--------------------------------|
|--------------2P0---2-0---------|--------------------------------|
|-------------------------3--0~~~|--------------------------------|

then theres this other solo that's crazy. just go for it, i can't get it.
            
Submit corrections

comments powered by Disqus
↑ Back to top | Ac Dc Tabs for Big Gun. Lyrics for acoustic guitar and electric guitar. 1 Tablatures and chords are parodies/interpretations of the original songs. You may use it for private study, scholarship, research or language learning purposes only