» » »

Ballbreaker Bass tabs (ver.1)

Artists:  A B C D E F G H I J K L M N O P Q R S T U V W X Y Z # 

Ballbreaker Bass tabs (ver.1)

Ac Dc
Rating:
0/5 (0 votes)

Hard to play? Try these video lessons and learn fast.
                ACDC-Ballbreaker
Standard Tuning (E, A, D, G)
Off Of The Album Ballbreaker
Please Comment/Rate

Intro
G---------------|x2
D---------------|
A-2-0-0---0-----|
E-------3---3-0-|

Pre-Verse (Rest first 2 times through)
G-----------------|x6
D-----------------|
A-----------------|
E-0-0-0-0-0-0-0-0-|

Verse
G-----------------|x8
D-----------------|
A-----------------|
E-0-0-0-0-0-0-0-0-|

Pre-Chorus          \/Play First Three Times
G----------------x4|-----|-----------------------------------------|
D----------0-0-----|-----|-----------0-0-0-0-----------------------|
A--------------0-0-|-----|-0-0-0-0-0---------0-0-0-0-0-0-0-0-0-0-0-|
E-3-3-3-3----------|-3-0-|-----------------------------------------|

Chorus (Rest first 2 times through)
G-----------------|x4
D-----------------|
A-----------------|
E-0-0-0-0-0-0-0-0-|

Verse
G-----------------|x8
D-----------------|
A-----------------|
E-0-0-0-0-0-0-0-0-|

Pre-Chorus          \/Play First Three Times
G----------------x4|-----|-----------------------------------------|
D----------0-0-----|-----|-----------0-0-0-0-----------------------|
A--------------0-0-|-----|-0-0-0-0-0---------0-0-0-0-0-0-0-0-0-0-0-|
E-3-3-3-3----------|-3-0-|-----------------------------------------|

Chorus (Rest first 2 times through)
G-----------------|x4
D-----------------|
A-----------------|
E-0-0-0-0-0-0-0-0-|

Solo
G-----------------|x8
D-----------------|
A-0-0-0-0-0-0-0-0-|
E-----------------|

G-------------x12-|
D-----------------|
A-----------------|
E-0-0-0-0-0-0-0-0-|

After Solo
G---------------|x4
D---------------|
A-2-0-0---0-----|
E-------3---3-0-|

Verse (Rest first 2 times through)
G-----------------|x4
D-----------------|
A-----------------|
E-0-0-0-0-0-0-0-0-|

Pre-Chorus          \/Play First Three Times
G----------------x4|-----|-----------------------------------------|
D----------0-0-----|-----|-----------0-0-0-0-----------------------|
A--------------0-0-|-----|-0-0-0-0-0---------0-0-0-0-0-0-0-0-0-0-0-|
E-3-3-3-3----------|-3-0-|-----------------------------------------|

Chorus (Rest first 2 times through)
G-----------------|x4
D-----------------|
A-----------------|
E-0-0-0-0-0-0-0-0-|

Solo Again
G-----------------|x8
D-----------------|
A-----------------|
E-0-0-0-0-0-0-0-0-|

Ending
G---------------|x8
D---------------|
A-2-0-0---0-----|
E-------3---3-0-|

Last 4 Times
G---------|
D---------|
A-2-0-0---|
E-------3-|

That's The FULL SONG Tabbed Out Pleased Comment/Rate
Enjoy
            
Hard to play? Try these video lessons and learn fast. | Correct




comments powered by Disqus
↑ Back to top | Tablatures and chords are parodies/interpretations of the original songs. You may use it for private study, scholarship, research or language learning purposes only