» » »

Ac Dc, Bad Boy Boogie Tabs (ver.2)

Artists:  A B C D E F G H I J K L M N O P Q R S T U V W X Y Z # 

Bad Boy Boogie Tabs (ver.2)

Ac Dc Tabs
 Rating:
4/5 (4 votes)
Bad Boy Boogie lessons Tabs too difficult? Try these video lessons and learn fast
                Bad Boy Boogie Is kick ass and it took me hours to figure this one out, enjoy
Tuning-Eb-half Down
PLEEZ RATE!
|----------------| Intro
|----------------|
|----2-2-2-2-----|
|----2-2-2-2-----|
|----0-0-0-0-----|
|----------------|

|-------------------|
|----3--------3-----|
|--2-2-5-2--2-2-5-2-| Riff 2
|--2-0-5-2--2-0-5-2-|
|--0---0-0--0---0-0-|
|-------------------|

|---------------------------|
|---------------------------|
|---7--12-10-7--7--12-10-7--| Riff 3
|---7--12-10-7--7--12-10-7--|
|---5--10-8--5--5--10-8--5--|
|---------------------------|

|----------------------------|
|----------------------------|
|---9--14-12-9--9--14-12-9---| Riff 4
|---9--14-12-9--9--14-12-9---|
|---7--12-10-7--7--12-10-7---|
|----------------------------|

|----------------------|
|----------------------|
|---5-2---2---2---2-2--| Riff 5
|---5-2---2---2---2-2--|
|---3-0---0---0---0-0--|
|-------3---3---3------|

|-------------------|
|-------------------|
|-------------------| Riff 6
|--7-5--------------|
|------7-6-3h5p3h3--|
|-------------------|

|------------------------|
|------------------------|
|------------------------| Guitar Fill
|------------------------|
|-7~-5~-7~-5~-7~-5~-7~5~-|
|------------------------|

Play these chords over the solo

|---| |---| |----------------------------------------|
|---| |---| |----------------------------------------|
|-2-| |-7-| |----------------------------------------|
|-2-| |-7-| |-2--------------------------------------|
|-0-| |-5-| |-2--------------------------------------|
|---| |---| |-0--------------------------------------|

|----------------------------------------------------|
|----------------------------------------------------| Both guitars
|----------------------------------------------------|
|----------------------------------------------------|
|--5----3--5-----3--5-----3--5-----3--5---3-|  play--| 3x
|----------------------------------------------------|

|---------------------------------------|
|---------------------------------------|
|---------------------------------------|
|---------------------------------------|
|-5-------------------------------------|
|---------------------------------------|

Solo   Malcolm hits the A chord over and over here
|---------------------------|--------------5-5-5------5-5-5------5-5-5--|
|--------------------------8|(10)-----8(10)------8(10)------8(10)-------|
|-5-------------------------|-------------------------------------------|
|---7-----------------------|-------------------------------------------|
|---------------------------|-------------------------------------------|
|---------------------------|-------------------------------------------|

|---------------5-5---5-5---|-5-5---5-5-5-5----5-5-5------5---5-5---5-5-|
|--8(10)---8(10)----8------8|------------------------8(10)--8-----8-----|
|---------------------------|-------------------------------------------|
|---------------------------|-------------------------------------------|
|---------------------------|-------------------------------------------|
|---------------------------|-------------------------------------------|

|------5--5-5------5-5-5-----5-5-|----5------5------5-----5------------------|
|8(10)--8-----8(10)-8----8(10)--8|(10)--8(10)--8(10)--8-5---5-8-5-----5------|
|--------------------------------|---------------------------------7---------|
|--------------------------------|-------------------------------------------|
|--------------------------------|-------------------------------------------|
|--------------------------------|-------------------------------------------|

Malcolm hits the D chord over and over here
|---------------------------|--------------------------------------|
|---------------------------|--------------------------------------|
|-7-5---7-------------------|-----5----5------------------(10)-----|
|-----7---5---7----5-7-5--2-|---------------7-----------7----------|
|-----------7---7-----------|--------------------------------------|
|---------------------------|--------------------------------------|

|-----------------------------------|--------------------------------------|
|-----------------------------------|--------------------------------------|
|(11)---------12--------------------|12(14)----12--10--(11)---13-10--12-10-|
|----12-10-12----12-10-12--12--12-10|------12------------------------------|
|-----------------------------------|--------------------------------------|
|-----------------------------------|--------------------------------------|

|-----------------------------------|-----------------------------10--9----|
|-----------------------------------|--------------------------------------|
|---12------------------------------|--------------------------------------|
|12----12-10-12--10(11)-------------|--------------------------------------|
|----------------------10-12-10--10-|--8-----------------------------------|
|-----------------------------------|-------10----10-----------------------|

                Now Malcolm hits the E chord over and over here
|-7-----7---------------------------|--------------------------------------|
|---10----10--8---10----------------|-------------------------10---8-9-----|
|---------------9----9-7---9--------|-------------9---7-9-7------9---------|
|------------------------9--9-7-5-7-|5-7-79-9-9-9---9-------9--------------|
|----------------------------------7|--------------------------------------|
|-----------------------------------|--------------------------------------|


|--------------10(12)----10---10(12)|-------------------------------------|
|-8---10---8------------------------|-------------------------------------|
|---9----9--------------------------|-------------------------------------|
|-----------------------------------|-----------------------------------7-|
|-----------------------------------|-------------------------------------|
|-----------------------------------|-------------------------------------|

|---------------------------|-------------------------------------|
|---------------------------|-------------------------------------|guitar 1
|---------------------------|-------------------------------------|
|-7---7---7---7---7---7---7-|-7---7---7---7---7---7---7---7-------|
|---------------------------|-------------------------------------|
|---------------------------|-------------------------------------|

|---------------------------|-------------------------------------|
|---------------------------|-------------------------------------|guitar 2
|-5--2--------5--2----------|-5-x-5-x-5--2------------------------|
|-5--2--------5--2----------|-5-x-5-x-5--2------------------------|
|-3--0--------3--0----------|-3-x-3-x-3--0------------------------|
|---------------------------|-------------------------------------|
repeat all of this as many times as needed

|----------------------------|--------------------------|
|----------------------------|--------------------------|
|----------------------------|--------------------------|
|-7--7--7--7--7--7--7--7-----|-7--7--7--7--7--7--7--7---| Guitar 1
|----------------------------|--------------------------|
|----------------------------|--------------------------|

|----------------------------|----------|----------------|
|----------------------------|----------|----------------|
|----------------------------|---7--5---|---7--5---------|
|--------------------------7-|-7-7--5-7-|-7-7--5-7-------| Guitar2
|--------------------------7-|-7-7--0-7-|-7-7--0-7-------|
|--------------------------5-|-5--------|-5--------------|


|----------------------------|----------------------------|
|----------------------------|----------------------------|
|----------------------------|--------------5-5-5-5-------|
|-7--7--7--7--7--7--7--7-----|-7------------5-5-5-5---7---| Guitar 1
|----------------------------|----------------------------|
|----------------------------|----------------------------|

|----------------------------|----------------------------|
|-------------------5-8--5---|--5-------------------8---5-|
|----7--(9)-----------------7|----7--5--------------------|
|----------------------------|---------7--7---------------|
|----------------------------|----------------------------|
|----------------------------|----------------------------|

|-------------------------------------------------------|
|8-5-5-8-5-5-8-5-5-8-5-5-11-8-8-11-8-8-11-8-8-12-9--9---|
|-------------------------------------------------------|
|-------------------------------------------------------|
|-------------------------------------------------------|
|-------------------------------------------------------|


|------------------------------------|------------------17--------|
|-18-10-10-13-10-10-13-10-10--14--11-|-20-(22)--20-(22)----20-(22)|
|------------------------------------|----------------------------|
|------------------------------------|----------------------------|
|------------------------------------|----------------------------|
|------------------------------------|----------------------------|
Enjoy, PLEEZ RATE
            
Submit corrections

comments powered by Disqus
↑ Back to top | Ac Dc Tabs for Bad Boy Boogie. Lyrics for acoustic guitar and electric guitar. Tablatures and chords are parodies/interpretations of the original songs. You may use it for private study, scholarship, research or language learning purposes only