» » »

Back Seat Confidential Tabs (ver.2)

Artists:  A B C D E F G H I J K L M N O P Q R S T U V W X Y Z # 

Back Seat Confidential Tabs (ver.2)

Ac Dc
Rating:
0/5 (0 votes)

Hard to play? Try these video lessons and learn fast.
                ##NOTES##
This song is tuned E,A,D,G,B,e. Notation is h- hammer on,
b- bend, p- pull off, ~- vibrato, x- mute.

e||------------------------------------|---------------||
B||------------------------------------|--12~~~-9------||
G||------------------------------------|----------9----||
D||------------------------------------|------------9--||
A||------------------------------------|---------------||
E||-000000000000000000000000000000000x-|---------------||

e||-------------------|-----|---------------|---------------------||
B||--3----------------|--5--|--15b-15b-15b~-|--5---3--2--0--------||
G||--2-2-2-0-2-0------|--7b-|---------------|--7b--5b-4b-2b-0-----||
D||--0-2-2-0-2-0-2--2-|-----|---------------|-----------------2~~-||
A||----0-0-x-0-x-2--2-|-----|---------------|---------------------||
E||--------3---3-0--0-|-----|---------------|---------------------||

e||-------------|----------||
B||-------------|----------||
G||------------o|----------||
D||---------0--o|----------||
A||-----0h2-----|-2p0------||
E||-0h3---------|-----3b-0-||

Then repeat the 2nd Line as a Main Riff.

e||--------|--------|-----||
B||--3--3--|--------|-----||
G||--2--2--|--2--2--|-----||
D||--0--0--|--2--2--|--2--||
A||--------|--0--0--|--2--||
E||--------|--------|--0--||

Repeat the 3rd line once
e||--5~~-5-------------|-------------------||
B||--------8-5---------|-------------------|| This is an example
G||------------7-5-----|------5-7-5-4------|| but the 2nd measure
D||----------------7~~-|--5-7---------7~~--|| is part of the solo
A||--------------------|-------------------||
E||--------------------|-------------------||

e||--7~~-7--------------|-------------7------------------||
B||--------10-7---------|-----------7---10p7-------------||
G||-------------9-7-----|------7-9b----------9-7---------||
D||-----------------9~~-|--7-9-------------------9-7-9~~-||
A||---------------------|--------------------------------||
E||---------------------|--------------------------------||

e||--555555555/5555555555/555555555--||
B||--777777777/7777777777/777777777--||
G||---------------------------------o||
D||---------------------------------o||
A||----------------------------------||
E||----------------------------------||

Then back to the main riff.
            
Hard to play? Try these video lessons and learn fast. | Correct




comments powered by Disqus
↑ Back to top | Tablatures and chords are parodies/interpretations of the original songs. You may use it for private study, scholarship, research or language learning purposes only