» » »

Back In Black Tabs (ver.4)

Artists:  A B C D E F G H I J K L M N O P Q R S T U V W X Y Z # 

Back In Black Tabs (ver.4)

Ac Dc
Rating:
2/5 (65 votes)

Hard to play? Try these video lessons and learn fast.
                (Intro)
 Ok. I tried all the other intros to back in black and they all don't work.
Here's the right way to play it.

----------------------------3-0------------------------------|
--------------------------------3-0--------------------------|
--------7-7-7-------------------------2^3R2p0----------------|
--2-----7-7-7----7-7-7---------------------------------------|
--2-----5-5-5----7-7-7---------------------------------------|
--0--------------5-5-5---------------------------------------|

-------------------------------------------------------------|
-------------------------------------------------------------|
--------7-7-7------------------------------------------------|
--2-----7-7-7----7-7-7---------------------------------------|
--2-----5-5-5----7-7-7---------------------------------------|
--0--------------5-5-5---7-4-7-5-7-6-7-7\--------------------|

See? it's better than the others and easier.
Another part goes like this:

-------------------------------------------------------------|
-------------------------------------------------------------|
-------------------------------------------------------------|
-------------------------------------------------------------|
0-5-4-2-4----------------------------------------------------|
----------4---7-5-7-6-7-7\-----------------------------------|

Repeat this as many times as necessary.
            
Hard to play? Try these video lessons and learn fast. | Correct




comments powered by Disqus
↑ Back to top | Tablatures and chords are parodies/interpretations of the original songs. You may use it for private study, scholarship, research or language learning purposes only