>
 >
Baby Please Dont Go 1

Baby Please Dont Go 1 Guitar Tabs

Ac Dc - Baby Please Dont Go 1 chords, tabs, tablatures, lyrics

Guitar lessons | Add/correct | Request | Top 50 tabs Artists:  A B C D E F G H I J K L M N O P Q R S T U V W X Y Z 0-9

Baby Please Dont Go 1 Guitar Tabs – Ac Dc

CD, Sheet music, Poster

Do you like Baby Please Dont Go 1? Share with your friends now
TabsTabs v2Tabs v3
tuning:standard
album:'74 jailbreak
year:(recorded 1975, released 1984)

key to tablature:
p=pull off
h=hammeron
/=slide up
\=slide down
x=mute note
b=bend
r=release bend
==let ring
~=vibrato

rythm figure one (played by both guitars)
E|---------------------------------------|
B|---------------------------------------|
G|---------------------------------------|
D|---------------------------------------|
A|---------------------------------------|
E|-0-0-0-0---0-0-0-0---0-0-0-0---0-0-0-0-|
play four times

rythm figure two (guitar one's part)
E|---------------|
B|-12-15-12------|
G|----------12-9-|
D|---------------|
A|---------------|
E|---------------|
play four times

rythm figure two (guitar two's part)
E|-----------|
B|-----------|
G|-----------|
D|---0-------|
A|-2---2-----|
E|-------3-0-|
play four times

rythm figure three (played by both guitars)
E|-12====------12h15p12----------------10h12h15-12-10-12-|
B|-------15-15----------15p12p10====15-------------------|
G|-------------------------------------------------------|
D|-------------------------------------------------------|
A|-------------------------------------------------------|
E|-------------------------------------------------------|

E|----------------------------------------------------|
B|-12-10b--12-----------------------------------------|
G|------------14-12-14-12--9-7-9----------------------|
D|-------------------------------9----9---------------|
A|---------------------------------10-----7-7-2-0-----|
E|------------------------------------------------3-0-|

rythm figure three (played by both guitars)
E|-----------------------------------------------------------------|
B|-----------------------------------------------------------------|
G|-----------------------------------------------------------------|
D|-----------------------------------------------------------------|
A|-----------------------------------------------------------------|
E|-7\0-0---7\0-0---7\0---7\0-0---7\0-0---7\0---7\0-0---7\0-0---7\0-|

E|------------------------------|
B|------------------------------|
G|------------------------------|
D|----------------------2-------|
A|----------------------0-------|
E|-7\0-0---7\0-0--7\0-----5-3-0-|
repeat throughout verses

rythm figure four (played by both guitars)
E|------------------------------------------------------------------|
B|------------------------------------------------------------------|
G|------------------------------------------------------------------|
D|--------------------------------------------------------------1-2-|
A|---2-4---4-4-5---5-5-6---6-6-7---7-7-8---8-8-9---------0-2-3------|
E|-0-0-2---2-2-3---3-3-4---4-4-5---5-5-6---6-6-7---0-2-3------------|

play rythm figure three again

guitar solo
guitar one will play the solo while guitar two plays 
the following.
E|--------------------|
B|--------------------|
G|--------------------|
D|-10-10-10-10---8h10-|
A|--------------------|
E|--------------------|
play throughout solo

solo
E|----------------------------------------------------------------|
B|-12-12-12-------------10h12-10-8-5===---------------------------|
G|------------9-12-9\----------------------------------12-14-14---|
D|-------------------------------------x-12h14-17p14--------------|
A|----------------------------------------------------------------|
E|----------------------------------------------------------------|

E|------------------------------------------------------|
B|-12--10p8h10-12---12\--5-5-5---12-12-12-5\---5~~~~~~~~|
G|------------------------------------------------------|
D|------------------------------------------------------|
A|------------------------------------------------------|
E|------------------------------------------------------|

E|--------------------------------------------------------|
B|-12-12-12-12-5\-----------------------------------------|
G|------------------7h9-9---9h12p9---9-7-9-9---9-7-9-12---|
D|--------------------------------------------------------|
A|--------------------------------------------------------|
E|--------------------------------------------------------|

E|---------------------------------------------------|
B|-----------12-12-12--------------------------------|
G|-9-7-9-9--------------7-9-9---9p7-9-12---9p7-9-9---|
D|---------------------------------------------------|
A|---------------------------------------------------|
E|---------------------------------------------------|

E|--------------------------------------------12---------------------|
B|-12-12-12-12-12-12-12-12-12-12\3-5-------------15p14p12h15p14p12---|
G|-------------------------------------------------------------------|
D|-------------------------------------------------------------------|
A|-------------------------------------------------------------------|
E|-------------------------------------12\0--------------------------|

E|--------------------------------------------------12h15-15/17-19-19~~~|
B|-12-----------------------------8h10p8h10p8---------------------------|
G|----12p10p9h12p10p9---7-9-10-12-------------9-9-----------------------|
D|----------------------------------------------------------------------|
A|----------------------------------------------------------------------|
E|----------------------------------------------------------------------|

E|---------------------------------------------------------|
B|-12p8p5-12p8p5-12p8p5-12p8p5-12p8p5-12p8p5-12p8p5-12p8p5-|
G|---------------------------------------------------------|
D|---------------------------------------------------------|
A|---------------------------------------------------------|
E|---------------------------------------------------------|

E|---------------------------------------------------------|
B|---------------------------------------------------------|
G|-11p7p4-11p7p4-11p7p4-11p7p4-11p7p4-11p7p4-11p7p4-11p7p4-|
D|---------------------------------------------------------|
A|---------------------------------------------------------|
E|---------------------------------------------------------|

E|---------------------------------------------------------|
B|---------------------------------------------------------|
G|---------------------------------------------------------|
D|-12p8p5-12p8p5-12p8p5-12p8p5-----------------------------|
A|-----------------------------12p8p5-12p8p5-12p8p5-12p8p5-|
E|---------------------------------------------------------|

E|---------------------------------------------------------|
B|---------------------------------------------------------|
G|---------------------------------------------------------|
D|---------------------------------------------------------|
A|---------------------------------------------------------|
E|-12p8p5-12p8p5-12p8p5-12p8p5-12p8p5-12p8p5-12p8p5-12p8p5-|

E|------|
B|------|
G|------|
D|------|
A|------|
E|-0/12-|

then play rythm figure three again and the song is over.

LONG LIVE ROCK AND ROLL!!!!!!!!





Comments


Popular Ac Dc tabs & chords
Love Hungry Man 3 Bass Tabs
Rock N Roll Dream Bass Tabs
Moneytalks Chords
Black Ice Drum Tabs
Back In Black 7 Tabs
Down Payment Blues Tabs
Girls Got Rhythm Tabs
Lets Make It 2 Tabs
Nervous Shakedown Intro Tabs
Ride On 1 Tabs


Song lyrics



↑ Back to top | Tablatures and chords are parodies/interpretations of the original songs. You may use it for private study, scholarship, research or language learning purposes only
© 2014 AZChords.com Contact us | Privacy policy | DMCA | Add/correct tabs | Request tabs | Top 50 tabs