» » »

Ac Dc, Baby Please Dont Go Tabs (ver.1)

Artists:  A B C D E F G H I J K L M N O P Q R S T U V W X Y Z # 

Baby Please Dont Go Tabs (ver.1)

Ac Dc Tabs
Rating:
0/5 (0 votes)
Baby Please Dont Go lessons Tabs too difficult? Try these video lessons and learn fast
                ----------------------------------------------------------------------------
                             Baby Please Don't Go - AC/DC
----------------------------------------------------------------------------

Tuning:Standard if not a half step down.

Angus and Malcolm:
e|------------|
B|------------|
G|------------|
D|------------|
A|------------|
E|-00000000---|  x8

Intro:__________________________________
Angus:                                 |
e|--------------------------|          |
B|--------15----------------|          |
G|-14b(16)--(16)14-12-------|          |
D|--------------------14----|          |
A|--------------------------|          |
E|--------------------------| Do this  |
                               4 times |
Malcolm:                               |
e|--------------------------|          |
B|--------------------------|          |
G|--------------------------|          |
D|------0-----------2-------|          |
A|-1b(2)--(2)1h0----2-------|          |
E|----------------3b0-------|          |
_______________________________________|

Main Riff: (Played together)
                                                   Hold bend   Release from
Angus:                                                      v   v 16
e|--------------12h15p12------------------12h15---12-----------------------|
B|-15b(17)~-12h15--------15p12--------12h15-----15--15p12----15------------|
G|---------------------------14b16~---------------------14b16--(16)14-12-12|
D|----------------------------------------------------------------------14-|
A|-------------------------------------------------------------------------|
E|-------------------------------------------------------------------------|
      Same here
e|-------------------------------------------------------------------------|
B|------15-----------------------------------------------------------------|
G|-14b16--(16)14-12--------------------------------------------------------|
D|-----------------14p12---------------------------------------------------|
A|----------------------14p12----------------------------------------------|
E|---------------------------15b-12----------------------------------------|

               Or slide
Malcolm:            v
e|---------0h3p0------------0h3p0-0----------------------------------------|
B|-3/5~-0h3-----3p0-----0h3------3-3p0----3-----------3--------------------|
G|-----------------2h4~----------------2h4-4p2p0-0-2h4-4p2p0---------------|
D|----------------------------------------------2-----------2p0------------|
A|-------------------------------------------------------------2p0---------|
E|----------------------------------------------------------------3b-0-----|

Verse:

Angus:
e|---------------------------|
B|---------------------------|
G|---------------------------|
D|---------------------------|
A|---------------------------|
E|-0-3bp0--12/0--12/0--------|
                              Play 6
Malcolm:                      times
e|---------------------------|
B|---------------------------|
G|---------------------------|
D|---------------------------|
A|---------------------------|
E|-0-3p0--7/0--7/0-----------|

On the 7th time:
e|------------------------------0------------------------------------------|
B|------------------------------0------------------------------------------|
G|------------------2-----------0------------------------------------------|
D|------------------2------------------------------------------------------|
A|------------------0---2p0------------------------------------------------|
E|-12/0--12/0--03p0--------3bp0----0--12/0---------------------------------|
                                      And so on.....

Play Main Riff Again
Then Verse
Then Main Riff
Intro

Bridge:

e|-0--(0-0)--1--(1-1)-2--(2-2)-3--(3-3)-4--(4-4)-5--(5-5)-6--(6-6)-6-(6-6)-|
B|-0--(0-0)--1--(1-1)-2--(2-2)-3--(3-3)-4--(4-4)-5--(5-5)-6--(6-6)-7-(7-7)-|
G|-1--(1-1)--2--(2-2)-3--(3-3)-4--(4-4)-5--(5-5)-6--(6-6)-7--(7-7)-8-(8-8)-|
D|-2--(2-2)--3--(3-3)-4--(4-4)-5--(5-5)-6--(6-6)-7--(7-7)-8--(8-8)-9-(9-9)-|
A|-2--(2-2)--3--(3-3)-4--(4-4)-5--(5-5)-6--(6-6)-7--(7-7)-8--(8-8)-9-(9-9)-|
E|-0--(0-0)--1--(1-1)-2--(2-2)-3--(3-3)-4--(4-4)-5--(5-5)-6--(6-6)-7-(7-7)-|

e|--------------|
B|--------------|
G|--------------|
D|-56789101112--|
A|-56789101112--|
E|-345678-9-10--|

Main Riff

Pause
Drumbeat
Clapping
Bass

Malcolm:

e|-----------------------|
B|-----------------------|
G|-----------------------|
D|---14-14-14-14-12h14---|
A|-----------------------|
E|-----------------------|

Angus: (Putting your arm in the air is highly recommended)
e|--7p4p0h7p4p0h7p4p0h7p4p0h7p4p0h7p4p0h7p4p0h7p4p0----------------|
B|-----------------------------------------------------------------|
G|-----------------------------------------------------------------|
D|-----------------------------------------------------------------|
A|-----------------------------------------------------------------|
E|-----------------------------------------------------------------|

e|-----------------------------------------------------------------|
B|--7p4p0h7p4p0h7p4p0h7p4p0h7p4p0h7p4p0h7p4p0h7p4p0----------------|
G|-----------------------------------------------------------------|
D|-----------------------------------------------------------------|
A|-----------------------------------------------------------------|
E|-----------------------------------------------------------------|


e|-----------------------------------------------------------------|
B|-----------------------------------------------------------------|
G|--7p4h0h7p4h0h7p4h0h7p4h0----------------------------------------|
D|-------------------------7p4h0h7p4h0h7p4h0h7p4h0-----------------|
A|-----------------------------------------------------------------|
E|-----------------------------------------------------------------|

e|-------------------------------------------------|
B|-------------------------------------------------|
G|-------------------------------------------------|
D|-------------------------------------------------|
A|-7p4h0h7p4h0h7p4h0h7p4h0-------------------------|
E|------------------------7p4h0h7p4h0h7p4h0h7p4h0--|


e|-------------------------------------------------------------------------|
B|-------------------------------------------------------------------------|
G|-14b16-16--16/-----------12--------14b16-14-12----------12/--------------|
D|-----------------12h14-14--14-12--------------14---12-14-----12-12h14-14-|
A|-------------------------------------------------------------------------|
E|-------------------------------------------------------------------------|

e|-------------------------------------------------------------------------|
B|-12--10h12p10--12-12-----------------------------------------------------|
G|-------------12---------14b16-14-12-----------14b16-16-16-16-14p12-------|
D|------------------------------------14-14/------------------------14-----|
A|-------------------------------------------------------------------------|
E|-------------------------------------------------------------------------|

e|-------------------------------------------------------------------------|
B|-------------------------------------------------------------------------|
G|-------------------------------------------------------------------------|
D|-14~/---14b16-16-16-16-14p12---------------------------12/---------------|
A|----------------------------14---12h14-14/-----12(x)-14-----12-14-14/----|
E|-------------------------------------------------------------------------|

e|-------------------------------------------------------------------------|
B|-------------------------------------------------------------------------|
G|------------------------14b16-16-16/-------------------------------------|
D|------12/-----------------------------------------------12/--------------|
A|-12-14-----12-14-14/-------------------12-14-14/---12-14----12-14-14/----|
E|-------------------------------------------------------------------------|


Why must you leave me lyin on my back

Pick scratch at the top of the neck (in the E A and D stings) and wiggle and slide hand 
make this noise

Here is where Malcolm starts getting intense:
e|-------------------------------------------------------------------------|
B|-------------------------------------------------------------------------|
G|-------------------------------------------------------------------------|
D|-xx14xx14xx14xx14xx12h14------------xx14xx14xx14xx14xx12h14--------------|
A|-xx--xx--xx--xx--xx-----------------xx--xx--xx--xx--xx-------------------|
E|------------------------0(Let ring)------------------------0-------------|

Going across the other side of the track

Angus again:
e|-------------------------------------------------------------------------|
B|-15b17-15h17p15-12--12---------------------------------------------------|
G|------------------14----14p12-14p12--12--14b16-12h14p12--14-12-14b-------|
D|-----------------------------------14------------------14----------------|
A|-------------------------------------------------------------------------|
E|-------------------------------------------------------------------------|

Found yourself a new man I know


e|---------------------12------12----------------12---15-12-15--17-17b19---|
B|----------------12-15--12-15----15-12-15-12-15---15-15b------------------|
G|-------12-14-15----------------------------------------------------------|
D|-12h14-------------------------------------------------------------------|
A|-------------------------------------------------------------------------|
E|-------------------------------------------------------------------------|
So those last two are played way too fast for me to comprehend so I'm just guessing. If 
can figure it out please tell me.

e|--7p4p0h7p4p0h7p4p0h7p4p0h7p4p0h7p4p0h7p4p0h7p4p0----------------|
B|-----------------------------------------------------------------|
G|-----------------------------------------------------------------|
D|-----------------------------------------------------------------|
A|-----------------------------------------------------------------|
E|-----------------------------------------------------------------|

e|-----------------------------------------------------------------|
B|--7p4p0h7p4p0h7p4p0h7p4p0h7p4p0h7p4p0h7p4p0h7p4p0----------------|
G|-----------------------------------------------------------------|
D|-----------------------------------------------------------------|
A|-----------------------------------------------------------------|
E|-----------------------------------------------------------------|


e|-----------------------------------------------------------------|
B|-----------------------------------------------------------------|
G|--7p4h0h7p4h0h7p4h0h7p4h0----------------------------------------|
D|-------------------------7p4h0h7p4h0h7p4h0h7p4h0-----------------|
A|-----------------------------------------------------------------|
E|-----------------------------------------------------------------|

e|-------------------------------------------------|
B|-------------------------------------------------|
G|-------------------------------------------------|
D|-------------------------------------------------|
A|-7p4h0h7p4h0h7p4h0h7p4h0-------------------------|
E|------------------------7p4h0h7p4h0h7p4h0h7p4h0--|

Bridge
Main Riff

Finally done.

This is my first tab so go easy on me.

- Constantine


| /  slide up
| \  slide down
| h  hammer-on
| p  pull-off
| ~  vibrato
| +  harmonic
| x  Mute note

===============================================================================
            

comments powered by Disqus
↑ Back to top | Ac Dc Tabs for Baby Please Dont Go. Lyrics for acoustic guitar and electric guitar. Tablatures and chords are parodies/interpretations of the original songs. You may use it for private study, scholarship, research or language learning purposes only