» » »

You Shook Me All Night Long Tabs (ver.3)

Artists:  A B C D E F G H I J K L M N O P Q R S T U V W X Y Z # 

You Shook Me All Night Long Tabs (ver.3)

Ac/Dc
Rating:
0/5 (0 votes)

Hard to play? Try these video lessons and learn fast.
                Intro       
|-3-3-5--3--3--2-3-2--------------------|
|-3-3-3--3--3--------3--3-----3---------|
|-0-0-0--0--0-----------2---2-2-4_5-2---|
|-----------------------0-----0---------|
|---------------------------------------|
|---------------------------------------|


  After intro to chorus         Chorus (simplified)
|3--5--3--3-2-3-2-------|  |-------------------------------------|
|3--3--3--3-------3-3---|  |-------------------------------------|
|0--0--0--0----------3--|  |----5-5-----5-----7--------7-----7---|
|--------------------2-2|  |-5--5-5--5--5--5--7--5--5--7--5--7---|Repeat throughout
|--------------------0--|  |-5--3-3--5--3--5--5--5--5--5--5--5---|
|-----------------------|  |-3-------3-----3-----3--3-----3------|

b=bend
r=release the bend
p=pull off
~=vibrato

The solo goes like this
|----------------|3---1-----------|----------------|
|2b3-------------|-b3---3r2-------|----------------|
|----------------|-----------3p0--|0-------0-------|
|----------------|--------------0-|----------3-0---|
|----------------|----------------|--------------3-|
|----------------|----------------|----------------|


|----------------|----------------|----3-3---0-3-3-|
|----------------|----------3-6-6-|--3-------------|
|------3~--0-----|----3-----------|----------------|
|----------------|5~--------------|----------------|
|--1-------------|----------------|----------------|
|----3-----------|----------------|----------------|


|6b7-6\5-3~---8-|--6-----------15~---15-13p10--|
|----------------|----8-5-8---8---|------------|
|----------------|----------------|------------|
|----------------|----------------|------------|
|----------------|----------------|------------|
|----------------|----------------|------------|


|------------------------|------13----------------|
|13-11-------13-11-------|14b15----14b15----------|
|------12----------12----|---------------17-15----|
|------------------------|---------------------17-|
|------------------------|------------------------|
|------------------------|------------------------|

                                         
|---------------------20-|---19~---18r17-15-|
|17-15-17-15-------------|------------------|
|17-15-17-15-------------|------------------|
|------------------17----|------------------|
|------------------------|------------------|
|------------------------|------------------|

                          
|17----15-13b15----------|------------------------|
|---17-------------------|15r14----14b15----------|
|------------------------|------12----------------|
|------------------------|------------------------|
|------------------------|------------------------|
|------------------------|------------------------|

             
|------15----18r17----15-|
|---17-------------------|
|------------------------|
|------------------------|
|------------------------|
|------------------------|
            
Hard to play? Try these video lessons and learn fast. | Correct




comments powered by Disqus
↑ Back to top | Tablatures and chords are parodies/interpretations of the original songs. You may use it for private study, scholarship, research or language learning purposes only