» » »

Tnt Malcolm Tabs (ver.1)

Artists:  A B C D E F G H I J K L M N O P Q R S T U V W X Y Z # 

Tnt Malcolm Tabs (ver.1)

Ac/Dc
Rating:
0/5 (0 votes)

Hard to play? Try these video lessons and learn fast.
                This is an easy song every thing on here is played by malcom young
T.N.T 
By ac dc




-----\----------------------------------------------------------------
-----\---------------------------------------------------------------
-----\----------------------------------------------------------------
-----\----------------------------------------------------------------
--2--\------2----5----7-----------------------------------------------
--0--\------0----3----5----3--5--3------------------------------------
Let         Play through the verses
Ring 
out


--7----5----2--------------------------------------------------------
--5----3----0--------------------------------------------------------
  T    N    T
            
Hard to play? Try these video lessons and learn fast. | Correct




comments powered by Disqus
↑ Back to top | Tablatures and chords are parodies/interpretations of the original songs. You may use it for private study, scholarship, research or language learning purposes only