» » »

Tnt Easy Tabs (ver.1)

Artists:  A B C D E F G H I J K L M N O P Q R S T U V W X Y Z # 

Tnt Easy Tabs (ver.1)

Ac/Dc
Rating:
0/5 (0 votes)

Hard to play? Try these video lessons and learn fast.
                TNT by Acdc
Main Riff:
----------------------2----2-----------------------------------
-2--------------------2----2-----2-----------------------------
-2--------------------0----0-----2-----------------------------
-0--------------3--------3---3---0-----------------------------
Chorus:
-----2---------------------------------------------------------
-----2--------2-X----------------------------------------------
-----0--------2-X----------------------------------------------
----------3---0-X----------------------------------------------
X=Palm mute
Very simple song i learned it on my first day of guitar
Just keep practicing it over and over faster and faster until you perfect it
Play as many time in song
            
Hard to play? Try these video lessons and learn fast. | Correct




comments powered by Disqus
↑ Back to top | Tablatures and chords are parodies/interpretations of the original songs. You may use it for private study, scholarship, research or language learning purposes only