>
 >
Thunderstruck 2

Thunderstruck 2 Guitar Tabs

Ac/Dc - Thunderstruck 2 chords, tabs, tablatures, lyrics

Guitar lessons | Add/correct | Request | Top 50 tabs Artists:  A B C D E F G H I J K L M N O P Q R S T U V W X Y Z 0-9

Thunderstruck 2 Guitar Tabs – Ac/Dc

CD, Sheet music, Poster

Do you like Thunderstruck 2? Share with your friends now
Tabs
AC/DC – Thunderstruck



Figure 1

|-------|--------------------------------|--------------------------------|
|-----0h|4p0h7p0h4p0h7p0h4p0h7p0h4p0h7p0h|4p0h7p0h4p0h7p0h4p0h7p0h4p0h7p0h|
|-------|--------------------------------|--------------------------------|
|-------|--------------------------------|--------------------------------|
|-------|--------------------------------|--------------------------------|
|-------|--------------------------------|--------------------------------|

|--------------------------------|--------------------------------|
|5p0h8p0h5p0h8p0h5p0h8p0h5p0h8p0h|5p0h8p0h5p0h8p0h5p0h8p0h5p0h8p0h|
|--------------------------------|--------------------------------|
|--------------------------------|--------------------------------|
|--------------------------------|--------------------------------|
|--------------------------------|--------------------------------|


Figure 2

|-----------------------------------|--------------------------------|
|12p0h10p0h9p0h10p0h9p0h7p0h9p0h5p0h|7p0h4p0h5p0h4p0h5p0h4p0h5p0h4p0h|
|-----------------------------------|--------------------------------|
|-----------------------------------|--------------------------------|
|-----------------------------------|--------------------------------|
|-----------------------------------|--------------------------------|



Figure 3

|----------------------------|
|----------------------------|
|-----4----4----4--4----4----|
|-----4----4----4--4----4----|
|---2---2-----2------2-----2-|
|----------------------------|
\Palm Mute___________________/


Figure 4

|----------------------|--------------------|
|----------------------|--------------------|
|----------------------|--------------------|
|--4------------2------|--2----2------------|
|--2------------0-2----|--0----0----2-------|
|-----------------0----|------------0-------|

Figure 5

You’ve been,       thunderstruck
                          B5_____________________________

Rode down the highway,  broke the limit,  we hit the town
              B5_________________________________________

Went through to Texas,   yeah Texas,  and we had some fun
                B5_______________________________________

We met some girls,      some dancers who gave a good time
            B5___________________________________________

Broke all the rules,   played all the fools,   yeah, yeah
              B5____________________  B5_________________

They,           they,          they blew our minds_______
B5____________  B5____________ B5________________________


Figure 6

|---------------------|---------------------|
|---------------------|---------------------|
|--4------2-----------|------------------2--|
|--4------2------2----|------------------2--|
|--2------0------2----|------------------0--|
|----------------0----|---------------------|


Figure 7

|----------------------|--------------------|
|----------------------|--------------------|
|----------------------|--------------------|
|--4----2-------2------|--2-----------------|
|--2----0-------0-2----|--0---------2-------|
|-----------------0----|------------0-------|


Figure 8

|-------------------|-------------------|-------------------|-------------------|
|-------------------|-------------------|-------------------|-------------------|
|-------------------|-------------------|-------------------|-------------------|
|--4---2----4-------|-------------------|--4---2----4-------|------------x\-----|
|--2---0----2-------|-------------------|--2---0----2-------|------------x\-----|
|-------------------|-------------------|-------------------|-------------------|


Figure 9

                       AH__________________
|---------------------|---------------------|
|---------------------|---------------------|
|---------------------|---------------------|
|---4-------------2---|---------------------|
|---2-------------0---|---------------------|
|---------------------|---------------------|
Figure 10

|---------------------|---------------------|
|---------------------|---------------------|
|---------------------|---------------------|
|-4-------------------|---------------------|
|-2----------------2--|---------------------|
|--------------2-4-0--|---------------------|



Song Structure

Angus					Malcolm

Fig.1  |x2
Fig.2  |x10	
Fig.2  |x12				Fig.3  |x26
Fig.4  |x4				Fig.3  |not sure how many times
Fig.5  |x1				Fig.3  |x22 (i think)
Fig.6  |x4				Fig.6  |x4
Fig.7  |x4				Fig.7  |x4
Fig.3  |x4
Fig.8  |x1 				Fig.3  |x4
Solo. 				Not sure what Malcolm plays
Fig.9  |x4				Fig.9  |x4
Fig.2  |x1
Fig.7  |x4				Fig.7  |x4
Fig.10 |x4 				Fig.10 |x4
Solo.					Fig.7  |x8
Fig.2  |x2 (getting slower)



This tab should be pretty good. It sounds good to me. The song structure may be a little off, especially Malcolm’s part, and I may have miscounted for some of the parts. I didn’t tab out the solos as they are really hard. 


James William Sales  (james_bowdie)
AC/DC – Thunderstruck



Figure 1

|-------|--------------------------------|--------------------------------|
|-----0h|4p0h7p0h4p0h7p0h4p0h7p0h4p0h7p0h|4p0h7p0h4p0h7p0h4p0h7p0h4p0h7p0h|
|-------|--------------------------------|--------------------------------|
|-------|--------------------------------|--------------------------------|
|-------|--------------------------------|--------------------------------|
|-------|--------------------------------|--------------------------------|

|--------------------------------|--------------------------------|
|5p0h8p0h5p0h8p0h5p0h8p0h5p0h8p0h|5p0h8p0h5p0h8p0h5p0h8p0h5p0h8p0h|
|--------------------------------|--------------------------------|
|--------------------------------|--------------------------------|
|--------------------------------|--------------------------------|
|--------------------------------|--------------------------------|


Figure 2

|-----------------------------------|--------------------------------|
|12p0h10p0h9p0h10p0h9p0h7p0h9p0h5p0h|7p0h4p0h5p0h4p0h5p0h4p0h5p0h4p0h|
|-----------------------------------|--------------------------------|
|-----------------------------------|--------------------------------|
|-----------------------------------|--------------------------------|
|-----------------------------------|--------------------------------|



Figure 3

|----------------------------|
|----------------------------|
|-----4----4----4--4----4----|
|-----4----4----4--4----4----|
|---2---2-----2------2-----2-|
|----------------------------|
\Palm Mute___________________/


Figure 4

|----------------------|--------------------|
|----------------------|--------------------|
|----------------------|--------------------|
|--4------------2------|--2----2------------|
|--2------------0-2----|--0----0----2-------|
|-----------------0----|------------0-------|

Figure 5

You’ve been,       thunderstruck
                          B5_____________________________

Rode down the highway,  broke the limit,  we hit the town
              B5_________________________________________

Went through to Texas,   yeah Texas,  and we had some fun
                B5_______________________________________

We met some girls,      some dancers who gave a good time
            B5___________________________________________

Broke all the rules,   played all the fools,   yeah, yeah
              B5____________________  B5_________________

They,           they,          they blew our minds_______
B5____________  B5____________ B5________________________


Figure 6

|---------------------|---------------------|
|---------------------|---------------------|
|--4------2-----------|------------------2--|
|--4------2------2----|------------------2--|
|--2------0------2----|------------------0--|
|----------------0----|---------------------|


Figure 7

|----------------------|--------------------|
|----------------------|--------------------|
|----------------------|--------------------|
|--4----2-------2------|--2-----------------|
|--2----0-------0-2----|--0---------2-------|
|-----------------0----|------------0-------|


Figure 8

|-------------------|-------------------|-------------------|-------------------|
|-------------------|-------------------|-------------------|-------------------|
|-------------------|-------------------|-------------------|-------------------|
|--4---2----4-------|-------------------|--4---2----4-------|------------x\-----|
|--2---0----2-------|-------------------|--2---0----2-------|------------x\-----|
|-------------------|-------------------|-------------------|-------------------|


Figure 9

                       AH__________________
|---------------------|---------------------|
|---------------------|---------------------|
|---------------------|---------------------|
|---4-------------2---|---------------------|
|---2-------------0---|---------------------|
|---------------------|---------------------|
Figure 10

|---------------------|---------------------|
|---------------------|---------------------|
|---------------------|---------------------|
|-4-------------------|---------------------|
|-2----------------2--|---------------------|
|--------------2-4-0--|---------------------|



Song Structure

Angus					Malcolm

Fig.1  |x2
Fig.2  |x10	
Fig.2  |x12				Fig.3  |x26
Fig.4  |x4				Fig.3  |not sure how many times
Fig.5  |x1				Fig.3  |x22 (i think)
Fig.6  |x4				Fig.6  |x4
Fig.7  |x4				Fig.7  |x4
Fig.3  |x4
Fig.8  |x1 				Fig.3  |x4
Solo. 				Not sure what Malcolm plays
Fig.9  |x4				Fig.9  |x4
Fig.2  |x1
Fig.7  |x4				Fig.7  |x4
Fig.10 |x4 				Fig.10 |x4
Solo.					Fig.7  |x8
Fig.2  |x2 (getting slower)



This tab should be pretty good. It sounds good to me. The song structure may be a little off, especially Malcolm’s part, and I may have miscounted for some of the parts. I didn’t tab out the solos as they are really hard. 


James William Sales  (james_bowdie)





Comments


Popular Ac/Dc tabs & chords
Ball Breaker Bass Tabs
Can't Stop Rock N Roll 1 Bass Tabs
Rock Your Heart Out 1 Bass Tabs
Let There Be Rock Chords
Cant Stop Rock And Roll Tabs
Hail Caesar Tabs
It's A Long Way To The Top Tabs
T.N.T Tabs
Tnt Full Tabs
You Shook Me All Night Long Corrected Tabs


Song lyrics



↑ Back to top | Tablatures and chords are parodies/interpretations of the original songs. You may use it for private study, scholarship, research or language learning purposes only
© 2014 AZChords.com Contact us | Privacy policy | DMCA | Add/correct tabs | Request tabs | Top 50 tabs