» » »

Ac/Dc, The Jack Tabs (ver.1)

Artists:  A B C D E F G H I J K L M N O P Q R S T U V W X Y Z # 

The Jack Tabs (ver.1)

Ac/Dc Tabs
 Rating:
4/5 (4 votes)
The Jack lessons Tabs too difficult? Try these video lessons and learn fast
1
                b---------------------------------3----------------------3-----------------------------------------------
g---------------------------------0-----------	----------2----------------------------------------------------
d-4---- -4--2----2--------2-----0-----2-------2------0--------2---3---4--------------------------------------------
a-2--2--2--0-----0---0---0-----------2--------2---------------0---1---2------------------------------------------
e---------------------------------3------0--0---0----------------------------------------------------------

e-----pm  4times-------------------------------------------------------------------------------------
b------------------------------------------------------------------------------------------------------
g----------------------------4----4----------------------------------2times--------------------------------
d----4-4--------------------2----2------4-5~~-----------------------------------------------------
a----2--2-----4 5~~------------------------------------------------------------------------------
e-----------------------------------------------------------------------------------------------------

e--pm---------4 times-------------------2times-----------------------------------------------------------------------
b------------------------------------------------------------------------------------------------2times----------------------------
g-------------------------------------------------------------------------------------------------------------2--------------
d------------------------------------2---2----4---5-------------4---4----4---4----4--4-------------------2--------------------------
a--2---2-----4-----2---------------0---0----0---0-------------2---2----2----2---2---2------------------016time-----------------------
e--0---0-----0-----0 let ring-------------------------------------------------------------------------------------------
            
Submit corrections

comments powered by Disqus
↑ Back to top | Ac/Dc Tabs for The Jack. Lyrics for acoustic guitar and electric guitar. 1 Tablatures and chords are parodies/interpretations of the original songs. You may use it for private study, scholarship, research or language learning purposes only