» » »

Ac/Dc, Sin City Tabs (ver.3)

Artists:  A B C D E F G H I J K L M N O P Q R S T U V W X Y Z # 

Sin City Tabs (ver.3)

Ac/Dc Tabs
 Rating:
4/5 (4 votes)
Sin City lessons Tabs too difficult? Try these video lessons and learn fast
1
                Intro:
E|------------------------|-------------------|------------------|
B|------------------------|-------------------|------------------|
G|------------------------|-------------------|------------------|
D|------------------------|-------------------|------------------|
A|---------0--2--5--0--2--|-------------------|------------------|
E|------3-----------------|--0----------------|------------------|

 Riff:
|--------------------|--------------------|--------------------|
|--------------------|--3-----------------|--------------------|
|-------------4------|--2------2----------|-------------4------|
|------2------4------|--0------2----------|------2------4------|
|------2------2------|---------0----------|------2------2------|
|------0-------------|--------------------|------0-------------|

|--------------------|--------------------|--------------------|
|--3-----------------|--------------------|--3-----------------|
|--2------2----------|-------------4------|--2------2----------|
|--0------2----------|------2------4------|--0------2----------|
|---------0----------|------2------2------|---------0----------|
|--------------------|------0-------------|--------------------|

|--------------------|----------------------|
|--------------------|--3-------------------|
|-------------4------|--2------2------------|
|------2------4------|--0------2------------|
|------2------2------|---------0------------|
|------0-------------|--------------0--3----|

|----------------------|--2--------------------|---------------------|
|---------------4------|--3------2-------------|--------------4------|
|*-------1------4------|--2------2------------*|--------------4------|
|*-------2------4------|--0------2------------*|-------2------4------|
|--------2------2------|---------0-------------|-------2------2------|
|---0----0-------------|--------------0--3-----|--0----0-------------|

|---2------2----2--2----|----2----2--2----2-----|
|---3------3----3--3----|----3----3--3----3-----|
|---2------2----2--2----|----2----2--2----2-----|
|---0------0----0--0----|----0----0--0----0-----|
|-----------------------|-----------------------|
|-----------------------|-----------------------|

 Verse Riff:
|---------------------|----------------------|---------------------|----------------------|
|---------------------|----------------------|---------------------|----------------------|
|---------------------|--2-------------------|---------------------|--2-------------------|
|-------2------4------|--0------2------------|-------2------4------|--0------2------------|
|-------2------2------|---------0----0-------|-------2------2------|---------0----0-------|
|--0------------------|-----------------3--
            
Submit corrections

comments powered by Disqus
↑ Back to top | Ac/Dc Tabs for Sin City. Lyrics for acoustic guitar and electric guitar. 1 Tablatures and chords are parodies/interpretations of the original songs. You may use it for private study, scholarship, research or language learning purposes only