» » »

Shoot To Thrill Tabs (ver.2)

Artists:  A B C D E F G H I J K L M N O P Q R S T U V W X Y Z # 

Shoot To Thrill Tabs (ver.2)

Ac/Dc
Rating:
0/5 (0 votes)

Tabs too difficult? Try these video lessons and learn fast.
                Intro:
E|----------------------|------------------|------------------|
B|----------------------|------------------|------------------|
G|-------------------2--|------------------|------------------|
D|----------2--2-----2--|------------------|------------------|
A|----------0--3--4--0--|------------------|------------------|
E|----------------------|------------------|------------------|

|------------------|----------------------|--3--------2--------3-----|
|------------------|----------------------|--3--------3--------3-----|
|------------------|-------------------2--|--0--------2--------0-----|
|------------------|----------2--2-----2--|--0--------0--------0-----|
|------------------|----------0--3--4--0--|--2--0--0--0--0--0--2--0--|
|------------------|----------------------|--3-----------------3-----|

|-----2--------------------|--3--------2--------3-----|-----2--------------------|
|-----3--------------------|--3--------3--------3-----|-----3--------------------|
|-----2--------2-----------|--0--------2--------0-----|-----2--------2-----------|
|-----0--------0-----2--2--|--0--------0--------0-----|-----0--------0-----2--2--|
|--0--0--0--0-----4--0--0--|--2--0--0--0--0--0--2--0--|--0--0--0--0-----4--0--0--|
|--------------------------|--3-----------------3-----|--------------------------|

 gonna take it down...
|----------3------------|-------------------|----------3------------|
|--5-------3-------5----|----------------5--|--5-------3-------5----|
|--5-------4-------5----|----------------5--|--5-------4-------5----|
|--5----5--5-------5----|----------------5--|--5-------5----5--5----|
|--3----3--5----5--3----|----------------3--|--3----5--5----3--3----|
|----------3----3-------|-------------------|-------3--3------------|

|----------------------|----------5-----------|-------------------|
|----5--5------5--5----|--7-------5------7----|-------------------|
|----5--5------5--5----|--7-------6------7----|-------------------|
|----5--5------5--5----|--7-------7------7----|-------------------|
|----3--3------3--3----|--5----7--7------5----|-------------------|
|----------------------|-------5--5-----------|----------------0--|

|-------------------------|--------------------------|
|----8--8-----8--8-----8--|--8-----8--8-----8--8-----|
|----7--7-----7--7-----7--|--7-----7--7-----7--7-----|
|----6--6-----6--6-----6--|--6-----6--6-----6--6-----|
|----7--7-----7--7-----7--|--7-----7--7-----7--7-----|
|----------0--------0-----|-----0--------0--------0--|

|---------------------3--|------3----3--3--3--2--|
|---------------------3--|------3----3--3--3--3--|
|--2----2----2--2-----0--|------0----0--0--0--2--|
|--2----2----2--2-----0--|------0----0--0--0--0--|
|--0----0----0--0-----2--|------2----2--2--2--0--|
|------------------0--3--|------3----3--3--3-----|
            
Tabs too difficult? Try these video lessons and learn fast.




comments powered by Disqus
↑ Back to top | Tablatures and chords are parodies/interpretations of the original songs. You may use it for private study, scholarship, research or language learning purposes only