» » »

Ac/Dc, Shake A Leg Tabs (ver.1)

Artists:  A B C D E F G H I J K L M N O P Q R S T U V W X Y Z # 

Shake A Leg Tabs (ver.1)

Ac/Dc Tabs
Rating:
0/5 (0 votes)
Shake A Leg lessons Tabs too difficult? Try these video lessons and learn fast
                Intro (2x):
E|-------------------|------------------|-------------------|
B|-------------------|------------------|-------------------|
G|-------------------|------------------|----------------2--|
D|----------------2--|------------------|----------------2--|
A|----------------2--|------------------|----------------0--|
E|----------------0--|------------------|-------------------|

|--------------------|-------------------|------------------|
|--------------------|-------------------|------------------|
|--------------------|-------------------|------------------|
|-----2--------------|----------------2--|------------------|
|-----2--------------|----------------2--|------------------|
|-----0--------------|----------------0--|------------------|

|--------------------|
|--------------------|
|----------------2---|
|----------------2---|
|----------------0---|
|--------------------|

 Idle juveniles...
|--------------------|--------------------|------------------|
|--------------------|--------------------|------------------|
|-----------------2--|--------------------|------------------|
|----2------------2--|----2------------2--|------------------|
|----2------------0--|----2------------2--|------------------|
|----0---------------|----0------------0--|------------------|

|-------------------|--------------------|--------------------|
|-------------------|--------------------|--------------------|
|----------------2--|-----------------2--|--------------------|
|----------------2--|----2------------2--|----2------------2--|
|----------------0--|----2------------0--|----2------------2--|
|-------------------|----0---------------|----0------------0--|

|------------------|---------------------|---------------------|
|------------------|---------------------|---------------------|
|------------------|---------------------|---------------------|
|------------------|--------2-------2----|--------2-------2----|
|------------------|--------2-------2----|--------2-------2----|
|------------------|--------0----3--0----|--------0----3--0----|

|---------------------|------------------|
|---------------------|------------------|
|---------------------|------------------|
|--------2-------2----|------------------|
|--------2-------2----|------------------|
|--------0----3--0----|------------------|

 Theme + Verse:
|-------------------|-----------------------|-------------------------|
|-------------------|-----------------------|-------------------------|
|-------------------|-----------------------|-------------------------|
|----------------2--|-------2---------------|----------------------2--|
|----------------2--|-------2-------2--2----|-----4--4-----5--5----2--|
|----------------0--|----3b-0----4----------|--5--------7----------0--|

|-----------------------|-------------------------|----------------------|
|-----------------------|-------------------------|----------------------|
|-----------------------|-------------------------|----------------------|
|-------2---------------|----------------------2--|------2----2----2--2--|
|-------2-------2--2----|-----4--4-----5--5----2--|------2----2----2--2--|
|----3b-0----4----------|--5--------7----------0--|------0----0----0--0--|

|----------------------|-----------------------|--------------------------|
|----------------------|-----------------------|--------------------------|
|----------------------|-----------------------|--------------------------|
|------2----2----2--2--|-------2---------------|-----------------------2--|
|------2----2----2--2--|-------2-------2--2----|-----4--4-----5--5-----2--|
|------0----0----0--0--|----3b-0----4----------|--5--------7--------0--0--|

|-------------------------|----------------------|-----------------------|
|-------------------------|----------------------|-----------------------|
|-------------------------|----------------------|-----------------------|
|----2--2--2--2--2--2--2--|------2----2----2--2--|-------2---------------|
|----2--2--2--2--2--2--2--|------2----2----2--2--|-------2-------2--2----|
|----0--0--0--0--0--0--0--|------0----0----0--0--|----3b-0----4----------|

|-------------------------|------------------------|-------------------------|
|-------------------------|------------------------|-------------------------|
|----------------------2--|----2--2----2--2--2--2--|--2--2--2--2--2----2--2--|
|----------------------2--|----2--2----2--2--2--2--|--2--2--2--2--2----2--2--|
|-----4--4-----5--5----0--|----0--0----0--0--0--0--|--0--0--0--0--0----0--0--|
|--5--------7-------------|------------------------|-------------------------|

|-----------------------|-------------------------|----------------------|
|-----------------------|-------------------------|----------------------|
|-------2---------------|-------------------------|----------------------|
|-------2-------2--2----|-----4--4-----5--5----2--|------2----2----2--2--|
|----3b-0----4----------|--5--------7----------2--|------2----2----2--2--|
|-----------------------|----------------------0--|------0----0----0--0--|


 Shake...
|-----------------------|-----------------------|-------------------------|
|-----------------------|-----------------------|----------------------9--|
|-----------------------|-----------------------|----------------------9--|
|----2--2----2----2--2--|-------2---------------|----------------------9--|
|----2--2----2----2--2--|-------2-------2--2----|-----4--4-----5--5----7--|
|----0--0----0----0--0--|----3b-0----4----------|--5--------7----------7--|

 ... a leg
|----------------------|---------------------|----------------------|
|----9--7--------7--9--|--------7------7--9--|----9--7--------7--9--|
|----9--8--------8--9--|--------8------8--9--|----9--8--------8--9--|
|----9--9--------9--9--|--------9------9--9--|----9--9--------9--9--|
|----7--9--------9--7--|--------9------9--7--|----7--9--------9--7--|
|----7--7--------7--7--|--------8------7--7--|----7--7--------7--7--|

|---------------------|-----------------------|---------------------|
|--------7------7--9--|----9--7----7----7--9--|--------7------7--9--|
|--------8------8--9--|----9--8----8----8--9--|--------8------8--9--|
|--------9------9--9--|----9--9----9----9--9--|--------9------9--9--|
|--------9------9--7--|----7--9----9----9--7--|--------9------9--7--|
|--------7------7--7--|----7--7----7----7--7--|--------7------7--7--|

|-----------------------|-----------------------|
|----9--7----9----7--9--|----9--7----9----7-----|
|----9--8----9----8--9--|----9--8----9----8-----|
|----9--9----9----9--9--|----9--9----9----9--2--|
|----7--9----7----9--7--|----7--9----7----9--2--|
|----7--7----7----7--7--|----7--7----7----7--0--|
            

comments powered by Disqus
↑ Back to top | Ac/Dc Tabs for Shake A Leg. Lyrics for acoustic guitar and electric guitar. Tablatures and chords are parodies/interpretations of the original songs. You may use it for private study, scholarship, research or language learning purposes only