» » »

Rock 'n Roll Ain't Noise Pollution Tabs (ver.1)

Artists:  A B C D E F G H I J K L M N O P Q R S T U V W X Y Z # 

Rock 'n Roll Ain't Noise Pollution Tabs (ver.1)

Ac/Dc
Rating:
0/5 (0 votes)

Hard to play? Try these video lessons and learn fast.
                AC/DC  Rock n Roll aint noise pollution (INTRO)

This song is an awsome song! I just listened to the song an i got it I checked and it was correct!
Vote for my tab dudes
                                            BallIsTiC PuNk 22_____________ANGUS YOUNG ROCKS!

INTRO
E---------------------------------------------------------------------------------------------------
B------0-----2----3---2---2---3------------------0---2---3---2--2---3----------------------------
G------1-----2----4---2---2---4------------------1---2---4---2--2---4---------------------------REPEAT TILL VERSE
D---------------------------------------------2---------------------------------2--------------------
A---------------------------------------------2---------------------------------2-------------------
E---------------------------------------3-----------------------------------3------------------------


--------0---2----3---2---2---3--------------------------------------------------------------------
--------1---2----4---2---2---4--------------------------------------------------------------------PLAY TILL END
---------------------------------------------2-------------------------------------------------------
---------------------------------------------2-------------------------------------------------------
-------------------------------------3---------------------------------------------------------------
            
Hard to play? Try these video lessons and learn fast. | Correct




comments powered by Disqus
↑ Back to top | Tablatures and chords are parodies/interpretations of the original songs. You may use it for private study, scholarship, research or language learning purposes only