» » »

Rock And Roll Damnation Bass tabs (ver.1)

Artists:  A B C D E F G H I J K L M N O P Q R S T U V W X Y Z # 

Rock And Roll Damnation Bass tabs (ver.1)

Ac/Dc
Rating:
0/5 (0 votes)

Hard to play? Try these video lessons and learn fast.
                Rock And Roll Dam-nation
AC/DC
Powerage (1978)


Intro / Verse / Guitar Solo
G|------------------------------|
D|------------------------------|
A|------------------------------|
E|---5-5-5-5-5-5-5-5-5-0-3-0----|


Chorus                        
G|----------------------------------|
D|----------------------------------|
A|-----------5-5-5------------------| x3
E|---3-3-3-3-------5-5-5-5-5-0-3-0--|

G|-------------------------------------|
D|-------------------------------------|
A|---5-5-5-5-5-5-5--7-7-7-7-7-7-7-7----|
E|-------------------------------------|

Can you believe this sites filter won't let you say d-a-m-n?
            
Hard to play? Try these video lessons and learn fast. | Correct




comments powered by Disqus
↑ Back to top | Tablatures and chords are parodies/interpretations of the original songs. You may use it for private study, scholarship, research or language learning purposes only