» » »

Ac/Dc, Problem Child Tabs (ver.1)

Artists:  A B C D E F G H I J K L M N O P Q R S T U V W X Y Z # 

Problem Child Tabs (ver.1)

Ac/Dc Tabs
 Rating:
4/5 (4 votes)
Problem Child lessons Tabs too difficult? Try these video lessons and learn fast
                Intro + verse:
E|--------------------|-----------------3--|--------------------|-----------------3--|
B|------------3----2--|------------3----3--|------------3----2--|------------3----3--|
G|------------2----2--|------------2----0--|------------2----2--|------------2----0--|
D|------------0----2--|------------0----0--|------------0----2--|------------0----0--|
A|------------0----0--|------------0-------|------------0----0--|------------0-------|
E|--------------------|-----------------3--|--------------------|-----------------3--|

           What I want...
|------------3-------|------------3-------|------------3-------|------------3-------|
|------------3----3--|------------3----3--|------------3----3--|------------3----3--|
|------------0----2--|------------0----2--|------------0----2--|------------0----2--|
|------------0----0--|------------0----0--|------------0----0--|------------0----0--|
|-----------------0--|-----------------0--|-----------------0--|-----------------0--|
|------------3-------|------------3-------|------------3-------|------------3-------|

           with a flick...
|--------------------|--------------------|--------------------|--------------------|
|--------------------|--------------------|--------------------|--------------------|
|------------2-------|------------2-------|------------2-------|------------2-------|
|------------2----2--|------------2----2--|------------2----2--|------------2----2--|
|------------0----2--|------------0----2--|------------0----2--|------------0----2--|
|-----------------0--|-----------------0--|-----------------0--|-----------------0--|

                     problem child...                         problem child...
|-------------------|---------------------|------------------|---------------------|
|-------------------|------------------3--|------------------|------------------3--|
|-------------------|--2----------5----2--|------------------|--2----------5----2--|
|--------------5----|--2----------5----0--|------------------|--2----------5----0--|
|--------------5----|--0----------3----0--|------------------|--0----------3----0--|
|--------------3----|---------------------|------------------|---------------------|

                     problem child...                         and i'm wild
|-------------------|---------------------|------------------|---------------------|
|-------------------|------------------3--|------------------|---------------------|
|-------------------|--2----------5----2--|------------------|--2------------------|
|--------------5----|--2----------5----0--|------------------|--2----------5----2--|
|--------------5----|--0----------3----0--|------------------|--0----------5----2--|
|--------------3----|---------------------|------------------|-------------3----0--|

                                      to verse:
|-------------------|-------------------------|
|-------------------|-----------------3----2--|
|-------------------|-----------------2----2--|
|--------2----------|--2--2--2--2--2--0----2--|
|--------2----------|--2--2--2--2--2--0----0--|
|--------0----------|--0--0--0--0--0----------|

after 2nd chorus:                                           to solo:
|---------------------|-------------------|------------------------|
|---------------------|-------------------|------------------------|
|--2------------------|-------------------|------------------------|
|--2----------5----2--|--------2----------|--2--2--2--2--2--2------|
|--0----------5----2--|--------2----------|--2--2--2--2--2--2------|
|-------------3----0--|--------0----------|--0--0--0--0--0--0------|
                       until chord change:
|------------------0--|------------------|
|-------------3----0--|------------------|
|--4----------2----1--|------------------|
|--4----------0----2--|------------------|
|--2----------0----2--|------------------|
|------------------0--|------------------|
                      until chord change:
|---------------------|------------------|
|-------------1----3--|------------------|
|--2----------0----2--|------------------|
|--2----------2----0--|------------------|
|--0----------3----0--|------------------|
|---------------------|------------------|
                       with E to verse:
|---------------------|
|-------------3-------|
|--2----------0----1--|
|--2----------0----2--|
|--0---------------2--|
|-------------3----0--|
            
Submit corrections

comments powered by Disqus
↑ Back to top | Ac/Dc Tabs for Problem Child. Lyrics for acoustic guitar and electric guitar. Tablatures and chords are parodies/interpretations of the original songs. You may use it for private study, scholarship, research or language learning purposes only