» » »

Love Song Tabs (ver.1)

Artists:  A B C D E F G H I J K L M N O P Q R S T U V W X Y Z # 

Love Song Tabs (ver.1)

Ac/Dc
Rating:
0/5 (0 votes)

Hard to play? Try these video lessons and learn fast.
                E|--12p-8p-5--12p-8p-5--|--12p-8p-5--12p-8p-5--|--14p-8p-5--14p-8p-5--|
B|----------------------|----------------------|----------------------|
G|----------------------|----------------------|----------------------|
D|--2-------------------|----------------------|--4-------------------|
A|----------------------|----------------------|----------------------|
E|----------------------|----------------------|----------------------|

|--14p-8p-5--14p-8p-5--|--15p-8p-5--15p-8p-5--|--15p-8p-5--15p-8p-5--|
|----------------------|----------------------|----------------------|
|----------------------|----------------------|----------------------|
|----------------------|--5-------------------|----------------------|
|----------------------|----------------------|----------------------|
|----------------------|----------------------|----------------------|

|--14p-8p-5--14p-8p-5--|--12p-8p-5--12p-8p-5--|--12p-7p-3--12p-7p-3--|
|----------------------|----------------------|----------------------|
|----------------------|----------------------|----------------------|
|--4-------------------|--2-------------------|--2-------------------|
|----------------------|----------------------|----------------------|
|----------------------|----------------------|----------------------|

|--12p-7p-3--12p-7p-3--|--14p-7p-3--14p-7p-3--|--14p-7p-3--14p-7p-3--|
|----------------------|----------------------|----------------------|
|----------------------|----------------------|----------------------|
|----------------------|----------------------|----------------------|
|----------------------|--4-------------------|----------------------|
|----------------------|----------------------|----------------------|

|--15p-7p-3--15p-7p-3--|--15p-7p-3--15p-7p-3--|--15p-7p-3--15p-7p-3--|
|----------------------|----------------------|----------------------|
|----------------------|----------------------|----------------------|
|--5-------------------|----------------------|----------------------|
|----------------------|----------------------|----------------------|
|----------------------|----------------------|----------------------|

|--15p-7p-3--15p-7p-3--|--10p-6p-3--10p-6p-3--|--10p-6p-3--10p-6p-3--|
|----------------------|----------------------|----------------------|
|----------------------|----------------------|----------------------|
|----------------------|--0-------------------|----------------------|
|----------------------|----------------------|----------------------|
|----------------------|----------------------|----------------------|

|--12p-6p-3--12p-6p-3--|--12p-6p-3--12p-6p-3--|--13p-6p-3--13p-6p-3--|
|----------------------|----------------------|----------------------|
|----------------------|----------------------|----------------------|
|--2-------------------|----------------------|--3-------------------|
|----------------------|----------------------|----------------------|
|----------------------|----------------------|----------------------|

|--13p-6p-3--13p-6p-3--|--12p-6p-3--12p-6p-3--|--12p-6p-3--12p-6p-3--|
|----------------------|----------------------|----------------------|
|----------------------|----------------------|----------------------|
|----------------------|--2-------------------|--0-------------------|
|----------------------|----------------------|----------------------|
|----------------------|----------------------|----------------------|

|--10p-6p-3--10p-6p-3--|--10p-6p-3--10p-6p-3--|--12p-6p-3--12p-6p-3--|
|----------------------|----------------------|----------------------|
|----------------------|----------------------|----------------------|
|--0-------------------|----------------------|--2-------------------|
|----------------------|----------------------|----------------------|
|----------------------|----------------------|----------------------|

|--12p-6p-3--12p-6p-3--|--13p-5p-1--13p-5p-1--|--13p-5p-1--13p-5p-1--|
|----------------------|----------------------|----------------------|
|----------------------|----------------------|----------------------|
|----------------------|--3-------------------|----------------------|
|----------------------|----------------------|----------------------|
|----------------------|----------------------|----------------------|

|--13p-5p-1--13p-5p-1--|--13p-5p-1--13p-5p-1--|--8p-4p-1--8p-4p-1--|
|----------------------|----------------------|--------------------|
|----------------------|----------------------|--------------------|
|----------------------|----------------------|--3-----------------|
|----------------------|----------------------|--------------------|
|----------------------|----------------------|--------------------|
            
Hard to play? Try these video lessons and learn fast. | Correct




comments powered by Disqus
↑ Back to top | Tablatures and chords are parodies/interpretations of the original songs. You may use it for private study, scholarship, research or language learning purposes only