» » »

Let's Get It Up Tabs (ver.1)

Artists:  A B C D E F G H I J K L M N O P Q R S T U V W X Y Z # 

Let's Get It Up Tabs (ver.1)

Ac/Dc
Rating:
0/5 (0 votes)

Hard to play? Try these video lessons and learn fast.
                Intro + Chorus:
|-------------------------|-------------------|
|-----------------2----3--|--3----------------|
|-----------------2----2--|--2----------------|
|------------2----2----4--|--4----------------|
|---------2-------0----0--|--0----------------|
|--0-2-4------------------|-------------------|

|-------------------------|--------------------|------------------|
|-----------------2----3--|--3----2------------|------------------|
|-----------------2----2--|--2----2------------|------------------|
|------------2----2----4--|--4----2------------|------------------|
|---------2-------0----0--|--0----0------------|------------------|
|--0-2-4------------------|--------------------|------------------|

|-------------------------|-------------------|-------------------------|--------------------|
|-----------------2----3--|--3----------------|-----------------2----3--|--3----2------------|
|-----------------2----2--|--2----------------|-----------------2----2--|--2----2------------|
|------------2----2----4--|--4----------------|------------2----2----4--|--4----2------------|
|---------2-------0----0--|--0----------------|---------2-------0----0--|--0----0------------|
|--0-2-4------------------|-------------------|--0-2-4------------------|--------------------|

 Verse:
|----------0----------|---------------------|----------0----------|---------------------|
|----------0----------|---------------------|----------0----------|---------------------|
|--2--4----1----------|--2--4----4----------|--2--4----1----------|--2--4----4----------|
|--2--4----2----------|--2--4----4----------|--2--4----2----------|--2--4----4----------|
|--0--2----2----------|--0--2----2----------|--0--2----2----------|--0--2----2----------|
|----------0----------|---------------------|----------0----------|---------------------|
 (_____________________________________________x3)
|----------0--0---------|--0----------------0----|
|----4--4--0--0----4----|--0----4---------0-2----|
|----4--4--1--1----4----|--1----4-----------2----|
|----2--2--2--2----2----|--2----4--2----2---2----|
|----------2--2---------|--2----2--0----0---0----|
|----------0--0---------|--0---------------------|

|----------0--0----------|-----------------------|-----------------------|
|----4--4--0--0----4--2--|------2----2--2--0--2--|----2--2----2--2--2----|
|----4--4--1--1----4--2--|------2----2--2--2--2--|----2--2----2--2--2----|
|----2--2--2--2----2--2--|------2----2--2--2--2--|----2--2----2--2--2----|
|----------2--2-------0--|------0----0--0--0--0--|----0--0----0--0--0----|
|----------0--0----------|-----------------------|-----------------------|
            
Hard to play? Try these video lessons and learn fast. | Correct




comments powered by Disqus
↑ Back to top | Tablatures and chords are parodies/interpretations of the original songs. You may use it for private study, scholarship, research or language learning purposes only