>
 >
It S A Long Way To The Top

It S A Long Way To The Top Guitar Tabs

Ac/Dc - It S A Long Way To The Top chords, tabs, tablatures, lyrics

Guitar lessons | Add/correct | Request | Top 50 tabs Artists:  A B C D E F G H I J K L M N O P Q R S T U V W X Y Z 0-9

It S A Long Way To The Top Guitar Tabs – Ac/Dc

CD, Sheet music, Poster

Do you like It S A Long Way To The Top? Share with your friends now
Tabs
Malcolm Riff:
|--------------------|-----------------------|-----------------------|
|--------------------|-----------------------|-----------------------|
|--------------------|-----------------------|-----------------------|
|--------------x--4--|----4-------4-------4--|----4-------4-------4--|
|--------------x--2--|----2----x--2----0--2--|----2----x--2----0--2--|
|--------------------|---------x-------------|---------x-------------|

Angus comes in:
|-----------------------|-------------------|------------------|
|-----------------------|-------------------|------------------|
|-----------------------|--4----------------|------------------|
|--------------2----4-4-|--4----------------|------------------|
|----------2-4-2----2-2-|--2----------------|------------------|
|-----------------------|-------------------|------------------|

|------------------|-----------------------|-------------------|
|------------------|-----------------------|-------------------|
|------------------|-----------------------|--4----------------|
|------------------|--------------2----4-4-|--4----------------|
|------------------|----------2-4-2----2-2-|--2----------------|
|------------------|-----------------------|-------------------|

|------------------|------------------|----------------------|
|------------------|------------------|----------------------|
|------------------|------------------|----------------------|
|------------------|------------------|--------------2----4--|
|------------------|------------------|----------2-4-2----2--|
|------------------|------------------|----------------------|

|-------------------|------------------|------------------|
|-------------------|------------------|------------------|
|--4----------------|------------------|------------------|
|--4----------------|------------------|------------------|
|--2----------------|------------------|------------------|
|-------------------|------------------|------------------|
                         riding on the highway...(let ring)
|----------------------|-------------------|------------------|
|----------------------|-------------------|------------------|
|----------------------|--4----------------|------------------|
|--------------2----4--|--4----------------|------------------|
|----------2-4-2----2--|--2----------------|------------------|
|----------------------|-------------------|------------------|

      gettin' robbed            gettin' stoned...  (go on until chorus)
|------------------|----7------7--------|----7------7--------|
|------------------|----7------7--------|----7------7--------|
|------------------|--------------------|--------------------|
|------------------|--------------------|--------------------|
|------------------|--------------------|--------------------|
|------------------|--------------------|--------------------|

Chorus Angus:
 Long way to the top...
|------------------5--|--------4------x-----|------------------|
|---------------x--5--|--------5------x-----|------------------|
|--4------------x--2--|--------4------x--4--|------------------|
|--4------------x--2--|--------6------x--4--|------------------|
|--2------------x--0--|------------------2--|------------------|
|---------------------|---------------------|------------------|

                     long way to the top...
|------------------|-----------------5--|--------4------------|
|------------------|-----------------5--|--------5------------|
|------------------|--4--------------2--|--------4---------4--|
|------------------|--4--------------2--|--------6--2------4--|
|------------------|--2--------------0--|-----------2------2--|
|------------------|--------------------|-----------4---------|

                                        think it's easy...
|------------------|------------------|-------------------|--------------------|
|------------------|------------------|-------------------|--------------------|
|------------------|------------------|--4----------------|--------------x--9--|
|------------------|------------------|--4----------------|--------------x--9--|
|------------------|------------------|--2----------------|--------------x--7--|
|------------------|------------------|-------------------|-----------------7--|

 try playin'...                         long way...
|------------------|------------------|--5--------------4--|--------------4-----|
|------------------|------------------|--5--------------5--|--------------5-----|
|------------------|------------------|--2--------------4--|--------------4--4--|
|------------------|------------------|--2--------------6--|--------------6--4--|
|------------------|------------------|--0-----------------|-----------------2--|
|------------------|------------------|--------------------|--------------------|
                             to verse:
|------------------|------------------|----7------7--------|
|------------------|------------------|----7------7--------|
|------------------|------------------|--------------------|
|------------------|------------------|--------------------|
|------------------|------------------|--------------------|
|------------------|------------------|--------------------|

 Chorus Malcolm:
 long way to the top...
|------------------5--|--------------------|-----------------------|
|---------------x--5--|--------------------|-----------------------|
|--4------------x--2--|-----------------4--|-----------------------|
|--4------------x--2--|--------2--------4--|----4-------4-------4--|
|--2------------x--0--|--------2--------2--|----2----x--2----0--2--|
|---------------------|--------4-----------|---------x-------------|

                       long way to the top...
|----------------------|------------------5--|----------------------|
|----------------------|------------------5--|----------------------|
|----------------------|--4---------------2--|-------------------4--|
|----4-------4----4----|--4---------------2--|-----------2----2--4--|
|----2----x--2----2----|--2------------2--0--|--------2--2----2--2--|
|---------x------------|---------------------|-----------4----4-----|

                                                 think it's easy
|-----------------------|-----------------------|-------------------|
|-----------------------|-----------------------|-------------------|
|-----------------------|-----------------------|--4----------------|
|----4-------4-------4--|----4-------4----2--2--|--4----------------|
|----2----x--2----0--2--|----2----x--2----2--2--|--2----------------|
|---------x-------------|---------x-------------|-------------------|

                      try playin'...
|--------------------|------------------|------------------|
|-----------------5--|------------------|------------------|
|--------------x--4--|------------------|------------------|
|--------------x--2--|------------------|------------------|
|--------------x--2--|------------------|------------------|
|--------------------|------------------|------------------|

 long way...                                            to verse:
|--5------------------|--------------------|------------------|
|--5------------------|--------------------|------------------|
|--2------------------|--------------x--4--|------------------|
|--2---------------2--|--------------x--4--|------------------|
|--0---------------2--|--------------x--2--|------------------|
|---------------2--4--|--------------------|------------------|

|--------------------|----------------------|----------------------|
|--------------------|----------------------|----------------------|
|-----------------4--|----4------4-------4--|----4------4-------4--|
|--------------2--4--|----4------4----2--4--|----4------4----2--4--|
|--------------0--2--|----2------2----0--2--|----2------2----0--2--|
|--------------------|----------------------|----------------------|





Comments


Popular Ac/Dc tabs & chords
Rock Your Heart Out 1 Bass Tabs
Highway To Hell Chords
Big Balls 1 Tabs
Dog Eat Dog 1 Tabs
Given The Dog A Bone 2 Tabs
Gone Shootin' 1 Tabs
Hells Bells (Intro Ver 2) Tabs
Love Song Tabs
Ride On Tabs
Thunderstruck Riff Tabs


Song lyrics



↑ Back to top | Tablatures and chords are parodies/interpretations of the original songs. You may use it for private study, scholarship, research or language learning purposes only
© 2014 AZChords.com Contact us | Privacy policy | DMCA | Add/correct tabs | Request tabs | Top 50 tabs