» » »

If You Want Blood (You've Got It) Tabs (ver.1)

Artists:  A B C D E F G H I J K L M N O P Q R S T U V W X Y Z # 

If You Want Blood (You've Got It) Tabs (ver.1)

Ac/Dc
Rating:
0/5 (0 votes)

Hard to play? Try these video lessons and learn fast.
                Intro + Verse:
E|------------------------|-------3----3--2-------|------------------------|
B|--2-------3-----2----3--|-------3----3--3-------|--2-------3-----2----3--|
G|--2-------2-----2----2--|-------0----0--2-------|--2-------2-----2----2--|
D|--2-------0-----2----0--|-------0----0--0-------|--2-------0-----2----0--|
A|--0----x-----x--0-------|----x---------------x--|--0----x-----x--0-------|
E|------------------------|-----------------------|------------------------|

|-------3----3--2-------|------------------------|-------3----3--2-------|
|-------3----3--3-------|--2-------3-----2----3--|-------3----3--3-------|
|-------0----0--2-------|--2-------2-----2----2--|-------0----0--2-------|
|-------0----0--0-------|--2-------0-----2----0--|-------0----0--0-------|
|----x---------------x--|--0----x-----x--0-------|----x---------------x--|
|-----------------------|------------------------|-----------------------|

                                     if you want   blood...
|------------------------|-------3----3--2--2----|-------------3----2--|
|--2-------3-----2----3--|-------3----3--3--3----|--2----------3----3--|
|--2-------2-----2----2--|-------0----0--2--2----|--2----------0----2--|
|--2-------0-----2----0--|-------0----0--0--0----|--2----------0----0--|
|--0----x-----x--0-------|----x------------------|--0----------2-------|
|------------------------|-----------------------|-------------3-------|

|------------------|-------------3----2--|------------------|
|------------------|--2----------3----3--|------------------|
|------------------|--2----------0----2--|------------------|
|------------------|--2----------0----0--|------------------|
|------------------|--0----------2-------|------------------|
|------------------|-------------3-------|------------------|

|-------------3----2--|------------------|-------------3----2--|
|--2----------3----3--|------------------|--2----------3----3--|
|--2----------0----2--|------------------|--2----------0----2--|
|--2----------0----0--|------------------|--2----------0----0--|
|--0----------2-------|------------------|--0----------2-------|
|-------------3-------|------------------|-------------3-------|

|------------------|-------------3----2--|------------------|
|------------------|--2----------3----3--|------------------|
|------------------|--2----------0----2--|------------------|
|------------------|--2----------0----0--|------------------|
|------------------|--0----------2-------|------------------|
|------------------|-------------3-------|------------------|

 after solo:
|-------------------2--|----3--3----3--2------|---------------------|
|--2------3----2----3--|----3--3----3--3------|----2------3----2----|
|--2------2----2----2--|----2--2----2--2------|----2------2----2----|
|--2------2----2----0--|----0--0----0--0------|----2------2----2----|
|--0------0----0-------|----------------------|----0------0----0----|
|----------------------|----------------------|---------------------|

|------------------------|-------------------2--|----3--3----3--2------|
            
Hard to play? Try these video lessons and learn fast. | Correct




comments powered by Disqus
↑ Back to top | Tablatures and chords are parodies/interpretations of the original songs. You may use it for private study, scholarship, research or language learning purposes only