>
 >
High Voltage 4

High Voltage 4 Guitar Tabs

Ac/Dc - High Voltage 4 chords, tabs, tablatures, lyrics

Guitar lessons | Add/correct | Request | Top 50 tabs Artists:  A B C D E F G H I J K L M N O P Q R S T U V W X Y Z 0-9

High Voltage 4 Guitar Tabs – Ac/Dc

CD, Sheet music, Poster

Do you like High Voltage 4? Share with your friends now
ChordsTabsTabs v2Tabs v3Tabs v4

ok, this is MOST of the solo to high voltage, it is wrong probably, 
but will give you something to mess around with, so you could try it.
this the first time i have ever done this and i am new to guitar so 
keep in mind, the it is not very spectacular.


-----------------------------------12----------------------------
---------12--------12-----------------12--15b--------------------
----14b----12--14b---12-----12--14b------------14b--12-------12--
-------------------------14------------------------------14------


---12-15p12-----12---12-15p12--------
------------15-----------------15----
----------------------------------15b
-------------------------------------     



... and thats all i have so far, if you know the rest of it,
any corrections or complaints. :) bye bye.





Comments


Popular Ac/Dc tabs & chords
Let Me Put My Love Into You 1 Bass Tabs
Thunderstruck #1 Bass Tabs
You Shook Me All Night Long 1 Bass Tabs
Big Balls Chords
All Screwed Up Tabs
Got You By The Balls Tabs
Inject The Venom Tabs
Let's Get It Up 1 Tabs
Rock N Roll Damnation 1 Tabs
Shot Down In Flames 1 Tabs


Song lyrics



↑ Back to top | Tablatures and chords are parodies/interpretations of the original songs. You may use it for private study, scholarship, research or language learning purposes only
© 2014 AZChords.com Contact us | Privacy policy | DMCA | Add/correct tabs | Request tabs | Top 50 tabs