>
 >
High Voltage 2

High Voltage 2 Guitar Tabs

Ac/Dc - High Voltage 2 chords, tabs, tablatures, lyrics

Guitar lessons | Add/correct | Request | Top 50 tabs Artists:  A B C D E F G H I J K L M N O P Q R S T U V W X Y Z 0-9

High Voltage 2 Guitar Tabs – Ac/Dc

CD, Sheet music, Poster

Do you like High Voltage 2? Share with your friends now
ChordsTabsTabs v2Tabs v3Tabs v4
HIGH VOLTAGE  written by A. Young M. Young B.Scott

AC/DC are the best
Angus and Malcolm Young are the best pair of guitarists in the world



INTRO               
                                                                                            
E----------------------------------------------------------------------------------------------------------------------
B----------------------------------------------------------------------------------------------------------------------
G----5-5------------------5-5-----------------5-5-------------------5-5--------------------------------------------
D----3-3------------------3-3-----------------3-3-------------------3-3-------------------------------------------
A---------7-7----5-5-5-------7-7----7-7-7--------7-7----5-5-5--------7-7----5-5-5---------------------------
E---------5-5----3-3-3-------5-5----5-5-5--------5-5----3-3-3--------5-5----3-3-3---------------------------



VERSE 

E-----9-x-9-----9-x-9-----9-x-9-----9-x-9-----9-x-9-----9-x-9---9-x-9------9-x-9--
B--7-8------7-8-------7-8-------7-8-------7-8-------7-8------7-8------7-8---------
G-----------------------------------------------------------------------------------
D-----------------------------------------------------------------------------------
A---------------------------------------------------------------------------------
E-----------------------------------------------------------------------------------

CHORUS
                Heaps of people dont get this but its there name in the chords Angus says.

           A              C                 D                C                High          voltage          rock   n    roll
E--------0--------0-------------2--------------0-----------------------------------
B--------0--------1-------------3--------------1-----------------------------------
G--------2--------0-------------2--------------0-----------------------------------
D--------2--------2-------------0--------------2-----------------------------------
A--------2--------3----------------------------3----------------------------------
E-----------------0----------------------------0----------------------------------

SOLO
     This looks tricky but it isnt it isnt played to quick           
 E------12----------------------------------------------------------
 B-------------12---------12------------------------12-1515---------
 G14b-------12-14-14---12-------12-14b-----------------------------
 D-----------------------------14-14--------------------------------
 A------------------------------------------------------------------
 E------------------------------------------------------------------

E-------------------12--------------------------------------------
B---------------------15------------------------------------------
G--14-14-12----12-14------14b--16h14-12-14b16h12-----------------
D----------14-----------------------------------------------------
A-----------------------------------------------------------------
E---------------------------------------------------------0-0-0-0-





Comments


Popular Ac/Dc tabs & chords
Rock Your Heart Out 1 Bass Tabs
Sin City 1 Bass Tabs
Touch Too Much Bass Tabs
Aint Noise Pollution Chords
Big Balls Chords
Are You Ready Tabs
Live Wire Tabs
Mistress For Christmas 1 Tabs
Problem Child Tabs
Snowballed Tabs


Song lyrics



↑ Back to top | Tablatures and chords are parodies/interpretations of the original songs. You may use it for private study, scholarship, research or language learning purposes only
© 2014 AZChords.com Contact us | Privacy policy | DMCA | Add/correct tabs | Request tabs | Top 50 tabs