» » »

Ac/Dc, Hell's Bells Tabs (ver.1)

Artists:  A B C D E F G H I J K L M N O P Q R S T U V W X Y Z # 

Hell's Bells Tabs (ver.1)

Ac/Dc Tabs
 Rating:
4/5 (4 votes)
Hell's Bells lessons Tabs too difficult? Try these video lessons and learn fast
1
                
this is about 98% accurate, i'm not sure about some parts 
of the first solo, but it's ok, i've played it for crowds
and everybody that knew the song, said it sounded perfect,
but it could just be me... haha, enjoy...

bell intro, then play this
standard tuning, heavy distortion
riff 1 (5 or 6 times)

e---0----------------------------------0---------------
b---------3---------1-------3---------------3------1---
g------------2----------2------2---------------2------2
d------------------------------------------------------
a-0----0--------0---------0-------0--0----0------0-----
E------------------------------------------------------

e--------------------I---------------------------------
b----3---------------I---------------------------------
g--------------------I------9--7--9------7--5--7-------------
d----------5--4---0--I------9--7--9------7--5--7---5--4-------- 
a-0--------3--2---0--I------7--7--7------5--5--5---3--2--------
E--------------------I---------------------------------


e--------------------------------------I
b--------------------------------------I
g-----9--7--9-------7--5--7------------I
d-----9--7--9-------7--5--7-----5--4---I
a-0---7--7--7-------5--5--5-----3--2---Irepeat intro


e|------------------------------------3-----------------------------------3---| 
b|---3--3--3---3--3--3---3--3--3------3------3--3--3---3--3--3-3-3-3-3----3---| 
g|---2--0--2---2--0--2---2--2--2--5---0------2--0--2---2--0--2-2-2-2-2-5--0---| 
D|-0------------------------------5---0---0----------------------------5--0---| 
A|--------------------------------3------------------------------------3------| 
E|------------------------------------3-----------------------------------3---| 

 PreChorus: E5 D5/A A E5 G5 & Chorus riff 1! 

Pre-Solo                                    
e|----------------------------------------5-----------------------------------| 
b|--8--7--8--7---7--5---------------------5-7-8--7-----8----------------------| 
g|--7--7-------9-7--5-----------------------7-8--7-----8----------------------| 
D|---------------------7--5--7------------------------------------------------| 
A|---------------------------------------------------------12-----------------| 
E|------------------------------------------------------------x---------------| 
                                                               x 
                                                                x 
Solo 1 
         
e|----------------------------------------------------------------------------| 
b|--------------------------------------------------8---------8-8-8-8-8-8--8-8| 
g|-------------------------------------------7-9-------7--9---9-9-9-9-9-9--9-9| 
D|--5-7-7-----4-5-5------0--4-5-7-7--5-7--------------------------------------| 
A|----------------------------------------------------------------------------| 
E|----------------------------------------------------------------------------| 
   
e|---------------------------------------------------------------------------| 
b|------------5-------8------7---7-------8--8------10--10-----13-13-12-13-13-| 
g|--7--5------5----9--9------7---7-------9--9------11--11-----14-14-13-14-14-| 
D|-------7-7------/----------------------------------------------------------| 
A|---------------------------------------------------------------------------| 
E|---------------------------------------------------------------------------| 
                                                     ub    ub 
e|----------------------------------------12---12-----10-----10---------------| 
b|12-13-13-12-13-12-13-13-13-13-13-13-13--13---13--13-15--13-15---------------| 
g|13-14-14-13-14-13-14-14-14-14-14-14-14--------------------------------------| 
D|----------------------------------------------------------------------------| 
A|----------------------------------------------------------------------------| 
E|----------------------------------------------------------------------------| 
                                                
e|---10----------------------10---10---------10----10-------------------------| 
b|13-15---12-13---12---10--/-10---10---13-10----10-------13--------15-17-19---| 
g|-----------------------\-/-----------------------------14----\14------------| 
D|-------------------------------------------------------------\--------------| 
A|----------------------------------------------------------------------------| 
E|----------------------------------------------------------------------------| 
                            
e|17--------17-----------17-----17----------------------------------------| 
b|---17-19-----17-19--17-19--17-19---17---15--17--15----15------------20--| 
g|---------------------------------------------------16-----19-21--19-21--| 
D|------------------------------------------------------------------------| 
A|------------------------------------------------------------------------| 
E|------------------------------------------------------------------------| 
                  
e|--------------17------------------------------------------17--20--17--------| 
b|-----------------20-17-----------------------20-22-20-22-------------20-22--| 
g|19-21-19-21------------20-19-17----19-17------------------------------------| 
D|--------------------------------19-------19---------------------------------| 
A|----------------------------------------------------------------------------| 
E|----------------------------------------------------------------------------| 
                
e|-17-17-------20-22--20-21-----17--------------------------------------------| 
b|-------20-17---------------------20-17--------------------------------------| 
g|---------------------------------------19-21-19-17-----17-------------------| 
D|---------------------------------------------------19------------19---------| 
A|-------------------------------------------------------------------\--------| 
E|--------------------------------------------------------------------\-------| 

Solo 2 
     b                                    b                                   b 
e|---------15----------------------------------15-----------------------------| 
b|-15-17------17--15----13------15-----15--17------17--15------13-----15----15| 
g|----------------------------------------------------------------------------| 
D|----------------------------------------------------------------------------| 
A|----------------------------------------------------------------------------| 
E|----------------------------------------------------------------------------| 
                                  b 
e|---15--------------------------------15-------------------------------------| 
b|17----17-15---13-------15-----15-17-----17-15------13-----------------------| 
g|----------------------------------------------------------------------------| 
D|----------------------------------------------------------------------------| 
A|----------------------------------------------------------------------------| 
E|-------------------------------------------------------17-----17-----17-----| 
                                                           \      \      \ 
        
e|----------------------------------------------5-------5---\----8---------8--| 
b|-------------------------------------------8-10---8--10---\\-----10-8-10--10| 
g|--2--0--2------2---------5-7---------5---------------------\----------------| 
D|--2-----------------------------------\-------------------------------------| 
A|--0-------------------------------------------------------------------------| 
E|----------------------------------------------------------------------------| 
     
e|--------5------5---------------17-------------17----------------------------| 
b|\----8-10--8--10---\----20-22-----20-17-20-22----17--20-22-----20-22---20-22| 
g|-\--------------------------------------------------------------------------| 
D|----------------------------------------------------------------------------| 
A|----------------------------------------------------------------------------| 
E|----------------------------------------------------------------------------| 
   
e|----------17----------------------------------------------------------------| 
b|-20-22------20-17-------------------20----20------20------20------20------20| 
g|------------------19-21-19-17-19-21----19-21---19-21---19-21---19-21---19-21| 
D|----------------------------------------------------------------------------| 
A|----------------------------------------------------------------------------| 
E|----------------------------------------------------------------------------| 

e|----------------------------------------------| 
b|20-----------19--17---------------------------| 
g|19-----17----19--17----------------2-------2--| 
D|----------19--------------x--------2-------2--| 
A|---------------------------\-------0-------0--| 
E|----------------------------\----------3------| 

Lyrics: 
Hell's Bells (Young, Young, Johnson) 

I'm a rolling thunder, a pouring rain 
I'm comin' on like a hurricane 
My lightning's flashing across the sky 
You're only young but you're gonna die 

I won't take no prisoners, won't spare no lives 
Nobody's putting up a fight 
I got my bell, I'm gonna take you to hell 
I'm gonna get you, Satan get you 

CHORUS: 
Hell's Bells 
Yeah, Hell's Bells 
You got me ringing Hell's Bells 
My temperature's high, Hell's Bells 

I'll give you black sensations up and down your spine 
If you're into evil you're a friend of mine 
See my white light flashing as I split the night 
'Cause if good's on the left, then I'm stickin' to the right 

I won't take no prisoners, won't spare no lives 
Nobody's puttin' up a fight 
I got my bell, I'm gonna take you to hell 
I'm gonna get you, Satan get you 

CHORUS 

Any death threats, or anything like that, send me an e-mail 
            
Submit corrections

comments powered by Disqus
↑ Back to top | Ac/Dc Tabs for Hell's Bells. Lyrics for acoustic guitar and electric guitar. 1 Tablatures and chords are parodies/interpretations of the original songs. You may use it for private study, scholarship, research or language learning purposes only