» » »

Hell Ain't A Bad Place To Be Tabs (ver.2)

Artists:  A B C D E F G H I J K L M N O P Q R S T U V W X Y Z # 

Hell Ain't A Bad Place To Be Tabs (ver.2)

Ac/Dc
Rating:
0/5 (0 votes)

Hard to play? Try these video lessons and learn fast.
                
  Intro

E---3--2--3--2--3--2------|
B---3--2--3--2--3--2--2---|
G---0--0--0--0--0--0--2---| 
D---0--0--0--0--0--0--2---|
A---------------------0---|
E-------------------------|

   Verse

E----------------------------------------------|
B----------------------------------------------|
G--------------------2--2--2--2----2--2--2--2--|
D--5--4--5--4--5--4--2--2--2--2----2--2--2--2--|
A--0--0--0--0--0--0--0--0--0--0----0--0--0--0--|
E----------------------------------------------|
  
  Chorus

E-------------------------------------------|
B-------------------------------------------|
G--4--3--4--6--6--6--6--5--3--4--3--5--6----|
D--2--1--2--4--4--4--4--3--1--2--1--3--4----|
A-------------------------------------------|
E-------------------------------------------|

  Solo Backup/Outtro X4                                 Play 5th Time     

E----------------------------------------------||----------------------------|  
B----------------------------------------------||----------------------------|
G--------------------2--2--2--2----2--2--2--2--||--2--2--2--2----2--2--2--2--|
D--5--4--5--4--5--4--2--2--2--2----2--2--2--2--||--2--2--2--2----2--2--2--2--|
A--0--0--0--0--0--0--0--0--0--0----0--0--0--0--||--0--0--0--0----0--0--0--0--|
E----------------------------------------------||----------------------------|

Like all songs, listen to the original version first to get the timing down. Also, on the 
same note, this version will not match the recoded version but it still sounds good. You may
have to experiment with your tunuing.

Play Order:
Intro X4
Verse X6 (let ring last time)
Chorus
Verse X6 (let ring last time)
Chorus
Solo (Solo Backup)
Chorus
Outtro
            
Hard to play? Try these video lessons and learn fast. | Correct




comments powered by Disqus
↑ Back to top | Tablatures and chords are parodies/interpretations of the original songs. You may use it for private study, scholarship, research or language learning purposes only