» » »

Ac/Dc, Flick Of A Switch Tabs (ver.3)

Artists:  A B C D E F G H I J K L M N O P Q R S T U V W X Y Z # 

Flick Of A Switch Tabs (ver.3)

Ac/Dc Tabs
 Rating:
4/5 (4 votes)
Flick Of A Switch lessons Tabs too difficult? Try these video lessons and learn fast
                Intro:
E|---------------------|-------------------------|---------------------|
B|----------------3----|-------------------------|----------------3----|
G|--2------5------2----|-------------------------|--2------5------2----|
D|--2------5------0----|-------------------------|--2------5------0----|
A|--0------3------0----|----------------2--3--2--|--0------3------0----|
E|---------------------|----1--2--3--4-----------|---------------------|
                                              verse:
|------------------|-------------------------|---------------------|
|------------------|-------------------------|----------------3----|
|------------------|-------------------------|--2------5------2----|
|------------------|-------------------------|--2------5------0----|
|------------------|----------------2--3--2--|--0------3------0----|
|------------------|----1--2--3--4-----------|---------------------|

|-------------------------|---------------------|-------------------------|
|-------------------------|----------------3----|-------------------------|
|-------------------------|--2------5------2----|-------------------------|
|-------------------------|--2------5------0----|-------------------------|
|----------------2--3--2--|--0------3------0----|----------------2--3--2--|
|----1--2--3--4-----------|---------------------|----1--2--3--4-----------|
                                                  		
|---------------------|-------------------------|---------------------|
|----------------3----|-------------------------|----------------3----|
|--2------5------2----|-------------------------|--2------5------2----|
|--2------5------0----|-------------------------|--2------5------0----|
|--0------3------0----|----------------2--3--2--|--0------3------0----|
|---------------------|----1--2--3--4-----------|---------------------|

 to chorus:
|---------------------|------------------------|------------------------|
|---------------------|------------------------|------------------------|
|---------------------|------------------------|------------------------|
|------------------7--|----------7----------7--|----------7-------------|
|------------0--3--5--|----0--3--5----0--3--5--|----0--3--5----0--3--0--|
|---------------------|------------------------|------------------------|

 flick of...                                        flick of...
|------------------------|-------------------------|------------------------|
|------------------------|-------------------------|------------------------|
|------------------------|-------------------------|------------------------|
|-----2--2--2----5----7--|-------------------------|-----2--2--2----5----7--|
|--3--0--0--0----3----5--|----5--5--3--5r-5--3--0--|--3--0--0--0----3----5--|
|------------------------|-------------------------|------------------------|

                        flick of...
|----------------------|------------------------|-------------------------|
|------3----3----------|------------------------|-------------------------|
|------0----2----------|------------------------|-------------------------|
|------0----0----------|-----2--2--2----5----7--|-------------------------|
|-----------0----3--0--|--3--0--0--0----3----5--|----5--5--3--5r-5--3--0--|
|------3---------------|------------------------|-------------------------|

 flick of...                                                  to verse:
|------------------------|---------------------|---------------------|
|------------------------|------3----3------3--|----3--3----3--------|
|------------------------|------0----2------2--|----2--0----2--------|
|-----2--2--2----5----7--|------0----0------0--|----0--0----0--------|
|--3--0--0--0----3----5--|-----------0------0--|----0-------0--------|
|------------------------|------3--------------|-------3-------------|
            
Submit corrections

comments powered by Disqus
↑ Back to top | Ac/Dc Tabs for Flick Of A Switch. Lyrics for acoustic guitar and electric guitar. Tablatures and chords are parodies/interpretations of the original songs. You may use it for private study, scholarship, research or language learning purposes only