>
 >
Flick Of The Switch 1

Flick Of The Switch 1 Guitar Tabs

Ac/Dc - Flick Of The Switch 1 chords, tabs, tablatures, lyrics

Guitar lessons | Add/correct | Request | Top 50 tabs Artists:  A B C D E F G H I J K L M N O P Q R S T U V W X Y Z 0-9

Flick Of The Switch 1 Guitar Tabs – Ac/Dc

CD, Sheet music, Poster

Do you like Flick Of The Switch 1? Share with your friends now
TabsTabs v2Tabs v3
AC/DC - FLICK OF THE SWITCH
(Flick Of The Switch, 1983)

Key
= after note = vibrato
^ after note = heavy vibrato 
\ = slide down
/ = slide up
+ = tap
h = hammer
p = pull
n = natural harmonic
s = pinching harmonic (squeal)
* = tremolo pick
t = trill
b = bend
|-3-| = triplet

n number above the tab = play the first part then the first finishing part
			 play the first part a second time and then play the second finishing part
			 etc.

Riff 1

E ---------------------------
B ---------------------------
G -2---5---7-----------------
D -2---5---7-----------------
A -0---3---5-----------2-3-2-
E -------------1-2-3-4-------

Riff 1A

E ----------- ---------------
B ----------- ---------------
G -2---5---7- ---------------
D -2---5---7- ---------------
A -0---3---5- ---------2-3-2-
E ----------- -1-2-3-4-------

Riff 1B

E -----------------
B -----------------
G -2---5---7-------
D -2---5---7-------
A -0---3---5-------
E -----------------

Riff 2

E -----2------2------2------2------2-
B -----3------3------3------3------3-
G -----2------2------2------2------2-
D -----0------0------0------0------0-
A -0-3----0-3----0-3----0-3----0-3---
E -----------------------------------

Riff 3

E -----------------------------------------------------3--2----
B -----------------------------------------------------3--3----
G -----------------------------------------------------0--2----
D -----------------------------------------------------0--0----
A -3-0-0-0-0-3-0-5--5-5-3-5b6-5-3-0-3-0-0-0-3-0-3-5--5-2-------
E -----------------------------------------------------3-------

Riff 3A

E -----------------------------------------------------3--2---2--2-3--2----
B -----------------------------------------------------3--3---3--3-3--3----
G -----------------------------------------------------0--2---2--2-0--2----
D -----------------------------------------------------0--0---0--0-0--0----
A -3-0-0-0-0-3-0-5--5-5-3-5b6-5-3-0-3-0-0-0-3-0-3-5--5-2-----------2-------
E -----------------------------------------------------3-----------3-------

Riff 3B

E ------------------------------------------------2--2-3--2---2--2-3--2---2--2-3--2---2--2-3--2---
B ---------------7--------------------------------3--3-3--3---3--3-3--3---3--3-3--3---3--3-3--3---
G ---------------7--------------------------------2--2-0--2---2--2-0--2---2--2-0--2---2--2-0--2---
D ---------------7--------------------------------0--0-0--0---0--0-0--0---0--0-0--0---0--0-0--0---
A -3-0-0-0-0-3-0-5--5-5-3-5b6-5-3-0-3-0-0-0-3-0-3------2-----------2-----------2-----------2------
E -----------------------------------------------------3-----------3-----------3-----------3------

Riff 3C

E ------------------------------------------------2--2-3--2---2--2-3--2---2--2-3--2---2--2-3--2--- ------------- ---
B ---------------7--------------------------------3--3-3--3---3--3-3--3---3--3-3--3---3--3-3--3--- ------------- ---
G ---------------7--------------------------------2--2-0--2---2--2-0--2---2--2-0--2---2--2-0--2--- -2----5----7- -2-
D ---------------7--------------------------------0--0-0--0---0--0-0--0---0--0-0--0---0--0-0--0--- -2----5----7- -2-
A -3-0-0-0-0-3-0-5--5-5-3-5b6-5-3-0-3-0-0-0-3-0-3------2-----------2-----------2-----------2------ -0----3----5- -0-
E -----------------------------------------------------3-----------3-----------3-----------3------ ------------- ---

Order 

Riff 1 x 1
Riff 1A x 1
Riff 1 x 7
Riff 1B x 1
Riff 2 x 1
Riff 3 x 1
Riff 3A x 1
Riff 1 x 5
Riff 1B x 1
Riff 2 x 1
Riff 3 x 1
Riff 3B x 1
Solo over Riff 1 x 7
Solo over Riff 1A x 1
Solo over Riff 2 x 1
Riff 3 x 3
Riff 3C x 1





Comments


Popular Ac/Dc tabs & chords
Hell's Bells 1 Bass Tabs
Let There Be Rock Chords
Problem Child Intro Chords
Breaking The Rules Tabs
Girls Got The Rhythm 1 Tabs
It's A Long Way To The Top 1 Tabs
Money Talks Tabs
Money Talks 1 Tabs
Shook Me All Night Long 1 Tabs
Thunderstruck 1 Tabs


Song lyrics



↑ Back to top | Tablatures and chords are parodies/interpretations of the original songs. You may use it for private study, scholarship, research or language learning purposes only
© 2014 AZChords.com Contact us | Privacy policy | DMCA | Add/correct tabs | Request tabs | Top 50 tabs