» » »

Ac/Dc, Dirty Deeds, Done Dirt Cheap Tabs (ver.2)

Artists:  A B C D E F G H I J K L M N O P Q R S T U V W X Y Z # 

Dirty Deeds, Done Dirt Cheap Tabs (ver.2)

Ac/Dc Tabs
 Rating:
4/5 (4 votes)
Dirty Deeds, Done Dirt Cheap lessons Tabs too difficult? Try these video lessons and learn fast
                Dirty Deeds Done Dirt Cheap
AC/DC


Intro/Verse:
E----------------------------]------------------------]
B--------------------3-------]--3--3------------------]
G-1------1----2-1----2-1-----]--2--2--1---------------]
D-2----0-2----2-2----0-2-----]--0--0—-2---------------]
A-2----0-2----0-2----0-2-----]--0--0--2---------------]
E-0----3-0------0------0-----]--------0---------------]

Pre Chorus:
E----------------------------------------------]
B--3-----3----3-----3--------------------------]
G--2-1---2-1--2-1---2-1-1-1-1-1------------------]
D--0-2---0-2--0-2---0-2-2-2-2-2------------------]
A--0-2---0-2--0-2---0-2-2-2-2-2------------------]
E----0-----0----0-----0-0-0-0-0------------------]

Chorus:
Dirty Deeds	Done Dirt Cheap	Dirty Deeds	Done Dirt Cheap  Dirty Deeds..
E--------------------3----------------------------------------------]---------]
B--------------------3-------------------------------------3--------]---------]
G--2------------2----0----2--------------1------------1----2----1---]---1-----]
D--2------------2----0----2--------------2------------2----0----2---]---2-----]
A--0------------0----0----0--------------2------------2---------2---]---2-----]
E--------------------3-------------------0------------0---------0---]---0-----]

Solo:					10fret pre-bent
E--------------------------------------------------------]
B------------------------------10b~~~--10-10-------------]
G--6b-6b----------9b-9-9-7---7---------------------------]
D---------9~~---7------------------------------9-9--9----]
A--------------------------------------------------------]
E--------------------------------------------------------]

E--------------------------7-10-7----------------------]
B---------------------------------10----10-------------]
G------------------------------------11----11-9-11-9---]
D--9-9--9--9-9--9--9-7--9------------------------------]
A------------------------------------------------------]
E------------------------------------------------------]

E-------------------------]---------------------]
B-------------------------]---------------------]
G-----------------9b~~~---]---------------------]
D--9--7----9-9-9----------]-now the pull-offs---]
A--------9----------------]---------------------]
E-------------------------]---------------------]
    Each Pattern 8 times	  Now 4 times 
E—(8-5-0)-(9-6-0)-(10-7-0)-]-(11-8-0)-(12-9-0)-(13-10-0)--]
B--------------------------]------------------------------]
G--------------------------]------------------------------]
D--------------------------]------------------------------]
A--------------------------]------------------------------]
E--------------------------]------------------------------]
	Each Pattern 
E-14-11-0)-(15-12-0)-(16-13-0)-(17-14-0)-(18-15-0)---17b~~~~--]
B-------------------------------------------------------------]
G-------------------------------------------------------------]
D-------------------------------------------------------------]
A-------------------------------------------------------------]
E-------------------------------------------------------------]
            
Submit corrections

comments powered by Disqus
↑ Back to top | Ac/Dc Tabs for Dirty Deeds, Done Dirt Cheap. Lyrics for acoustic guitar and electric guitar. Tablatures and chords are parodies/interpretations of the original songs. You may use it for private study, scholarship, research or language learning purposes only