>
 >
Back In Business

Back In Business Bass Tabs

Ac/Dc - Back In Business chords, tabs, tablatures, lyrics

Guitar lessons | Add/correct | Request | Top 50 tabs Artists:  A B C D E F G H I J K L M N O P Q R S T U V W X Y Z 0-9

Back In Business Bass Tabs – Ac/Dc

CD, Sheet music, Poster

Do you like Back In Business? Share with your friends now
Bass TabsTabs
AC/DC-Back in Business 
Fly On The Wall (1985) 

Standard Tuning 

Intro: (0:09)

   G
G|-----------------|-----------------|-----------------|-----------------|
D|-----------------|-----------------|-----------------|-----------------|
A|-----------------|-----------------|-----------------|-----------1-3---|
E|-3-3-3-3-3-3-3-3-|-3-3-3-3-3-3-3-3-|-3-3-3-3-3-3-3-3-|-3-3-3-3-3-----3-|

Verse 1:

   G
G|-----------------|-----------------|-----------------|-----------------|
D|-----------------|-----------------|-----------------|-----------------|
A|-----------------|-----------------|-----------------|-----------------|
E|-3-3-3-3-3-3-3-3-|-3-3-3-3-3-3-3-3-|-3-3-3-3-3-3-3-3-|-3-3-3-3-3-3-3-3-|

   C
G|-----------------|-----------------|-----------------|-----------------|
D|-----------------|-----------------|-----------------|-----------------|
A|-3-3-3-3-3-3-3-3-|-3-3-3-3-3-3-3-3-|-3-3-3-3-3-3-3-3-|-3-3-3-3-3-3-3-3-|
E|-----------------|-----------------|-----------------|-----------------|

   G
G|-----------------|-----------------|-----------------|-----------------|
D|-----------------|-----------------|-----------------|-----------------|
A|-----------------|-----------------|-----------------|-----------1-3---|
E|-3-3-3-3-3-3-3-3-|-3-3-3-3-3-3-3-3-|-3-3-3-3-3-3-3-3-|-3-3-3-3-3-----3-|

Pre Chorus 1:

   D                 C                 D                 C                 
G|-----------------|-----------------|-----------------|-----------------|
D|-----------------|-----------------|-----------------|-----------------|
A|-5-5-5-5-5-5-5-5-|-3-3-3-3-3-3-3-3-|-5-5-5-5-5-5-5-5-|-3-3-3-3-3-3-3-3-|
E|-----------------|-----------------|-----------------|-----------------|

   D                 C                           F       C       F   E
G|-----------------|-----------------|-----------------|-5-3-5-----------|
D|-----------------|-----------------|-----------3-4-5-|---------3---2---|
A|-5-5-5-5-5-5-5-5-|-3-3-3-3-3-3-3-3-|-3-3-3-3-3-------|-----------------|
E|-----------------|-----------------|-----------------|-----------------|

Chorus 1:

   G                                                 C           F   E
G|-----------------|-----------------|-----------------|-----------------|
D|-----------------|-----------------|-----------------|---------3---2---|
A|-----------------|-----------------|---------------3-|-3-3-3-3---------|
E|-3-3-3-3-3-3-3-3-|-3-3-3-3-3-3-3-3-|-3-3-3-3-3-3-3---|-----------------|

   G                                                 C           F   E
G|-----------------|-----------------|-----------------|-----------------|
D|-----------------|-----------------|-----------------|---------3---2---|
A|-----------------|-----------------|---------------3-|-3-3-3-3---------|
E|-3-3-3-3-3-3-3-3-|-3-3-3-3-3-3-3-3-|-3-3-3-3-3-3-3---|-----------------|

   G
G|-----------------|-----------------|
D|-----------------|-----------------|
A|-----------------|-----------1-3---|
E|-3-3-3-3-3-3-3-3-|-3-3-3-3-3-----3-|

Verse 2:

   G
G|-----------------|-----------------|-----------------|-----------------|
D|-----------------|-----------------|-----------------|-----------------|
A|-----------------|-----------------|-----------------|---------------1-|
E|-3-3-3-3-3-3-3-3-|-3-3-3-3-3-3-3-3-|-3-3-3-3-3-3-3-3-|-3-3-3-3-3-3-3---|

   C
G|-----------------|-----------------|-----------------|-----------------|
D|-----------------|-----------------|-----------------|-------1---------|
A|-3-3-3-3-3-3-3-3-|-3-3-3-3-3-3-3-3-|-3-3-3-3-3-3-3-3-|-3-3-3-----3-----|
E|-----------------|-----------------|-----------------|-----------------|

   G
G|-----------------|-----------------|-----------------|-----------------|
D|-----------------|-----------------|-----------------|-----------------|
A|-----------------|-----------------|-----------------|-----------------|
E|-3-3-3-3-3-3-3-3-|-3-3-3-3-3-3-3-3-|-3-3-3-3-3-3-3-3-|-3-3-3-3-3-3-3-3-|

Pre Chorus 2:

   D                 C                 D                 C                 
G|-----------------|-----------------|-----------------|-----------------|
D|-----------------|-----------------|-----------------|-----------------|
A|-5-5-5-5-5-5-5-5-|-3-3-3-3-3-3-3-3-|-5-5-5-5-5-5-5-5-|-3-3-3-3-3-3-3-3-|
E|-----------------|-----------------|-----------------|-----------------|

   D                 C                               G   C       F   C
G|-----------------|-----------------|-----------------|-5-3-5-----------|
D|-----------------|-----------------|---------------5-|---------3-------|
A|-5-5-5-5-5-3-2-0-|-3-3-3-3-3-3-3-3-|-3-3-3-3-3-3-3---|-------------3---|
E|-----------------|-----------------|-----------------|-----------------|

Chorus 2:

   G                                                 C           F   E
G|-----------------|-----------------|-----------------|-----------------|
D|-----------------|-----------------|-----------------|---------3---2---|
A|-----------------|-----------------|---------------3-|-3-3-3-3---------|
E|-3-3-3-3-3-3-3-3-|-3-3-3-3-3-3-3-3-|-3-3-3-3-3-3-3---|-----------------|

   G                                                 C           F   C
G|-----------------|-----------------|-----------------|-----------------|
D|-----------------|-----------------|-----------------|---------3-------|
A|-----------------|-----------------|---------------3-|-3-3-3-3-----3---|
E|-3-3-3-3-3-3-3-3-|-3-3-3-3-3-3-3-3-|-3-3-3-3-3-3-3---|-----------------|

Guitar Solo: 

   G
G|-----------------|-----------------|-----------------|-----------------|
D|-----------------|-----------------|-----------------|-----------------|
A|-----------------|-----------------|-----------------|-----------------|
E|-3-3-3-3-3-3-3-3-|-3-3-3-3-3-3-3-3-|-3-3-3-3-3-3-3-3-|-3-3-3-3-3-3-3-3-|

   C                                   G
G|-----------------|-----------------|-----------------|-----------------|
D|-----------------|-----------------|-----------------|-----------------|
A|-3-3-3-3-3-3-3-3-|-3-3-3-3-3-3-3-3-|-----------------|-----------------|
E|-----------------|-----------------|-3-3-3-3-3-3-3-3-|-3-3-3-3-3-3-3-3-|

   C                                             F       C       F   E
G|-----------------|-----------------|-----------------|-5-3-5-----------|
D|-----------------|-----------------|----------/3-4-5-|---------3---2---|
A|-3-3-3-3-3-3-3-3-|-3-3-3-3-3-3-3-3-|-3-3-3-3-3-------|-----------------|
E|-----------------|-----------------|-----------------|-----------------|


Chorus 3:

   G                                                 C           F   C
G|-----------------|-----------------|-----------------|-----------------|
D|-----------------|-----------------|-----------------|---------3-------|
A|-----------------|-----------------|---------------3-|-3-3-3-3-----3---|
E|-3-3-3-3-3-3-3-3-|-3-3-3-3-3-3-3-3-|-3-3-3-3-3-3-3---|-----------------|

   G                                                 C           F   E
G|-----------------|-----------------|-----------------|-----------------|
D|-----------------|-----------------|-----------------|---------3---2---|
A|-----------------|-----------------|---------------3-|-3-3-3-3---------|
E|-3-3-3-3-3-3-3-3-|-3-3-3-3-3-3-3-3-|-3-3-3-3-3-3-3---|-----------------|

   G                                                 C           F   C
G|-----------------|-----------------|-----------------|-----------------|
D|-----------------|-----------------|-----------------|---------3-------|
A|-----------------|-----------------|---------------3-|-3-3-3-3-----3---|
E|-3-3-3-3-3-3-3-3-|-3-3-3-3-3-3-3-3-|-3-3-3-3-3-3-3---|-----------------|

   G                                                 C           F   E
G|-----------------|-----------------|-----------------|-----------------|
D|-----------------|-----------------|-----------------|---------3---2---|
A|-----------------|-----------------|---------------3-|-3-3-3-3---------|
E|-3-3-3-3-3-3-3-3-|-3-3-3-3-3-3-3-3-|-3-3-3-3-3-3-3---|-----------------|

Bridge:

   G
G|-----------------|-----------------|-----------------|-----------------|
D|-----------------|-----------------|-----------------|-----------------|
A|-----------------|-----------------|-----------------|-----------------|
E|-3---------------|-----------------|-----------------|-----------------|

                                                                 F   E
G|-----------------|-----------------|-----------------|-----------------|
D|-----------------|-----------------|-----------------|---------3---2---|
A|-----------------|-----------------|-----------------|-----------------|
E|-----------------|-----------------|-----------------|-----------------|

Chorus 4:

   G                          F  C     G                         F   C
G|-----------------|-----------------|-----------------|-----------------|
D|-----------------|---------3-------|-----------------|---------3-------|
A|-----------------|-------------3---|-----------------|-------------3---|
E|-3-3-3-3-3-3-3-3-|-3-3-3-3---------|-3-3-3-3-3-3-3-3-|-3-3-3-3---------|

   G                          F  C     G                         F   C
G|-----------------|-----------------|-----------------|-----------------|
D|-----------------|---------3-------|-----------------|---------3-------|
A|-----------------|-------------3---|-----------------|-------------3---|
E|-3-3-3-3-3-3-3-3-|-3-3-3-3---------|-3-3-3-3-3-3-3-3-|-3-3-3-3---------|

Outro: (Slow down)

  A# C A#C                             G
G|-----------------|-----------------|-----------------|-----------------|
D|-----------------|-----------------|-----------------|-----------------|
A|-1-3-1-3---------|-----------------|-----------------|-----------------|
E|-----------------|-----------------|-3---------------|-----------------|

                                   G
G|-----------------|-----------------|
D|-----------------|-----------------|
A|-----------------|-----------------|
E|-----------------|---------------3-|





Comments


Popular Ac/Dc tabs & chords
Are You Ready Bass Tabs
Gone Shootin' 1 Bass Tabs
The Jack Chords
Back Seat Confidential Tabs
Dog Eat Dog Tabs
Have A Drink Tabs
Hell's Bells 1 Tabs
High Voltage 4 Tabs
Night Prowler 1 Tabs
You Shook Me All Night Long 2 Tabs


Song lyrics



↑ Back to top | Tablatures and chords are parodies/interpretations of the original songs. You may use it for private study, scholarship, research or language learning purposes only
© 2014 AZChords.com Contact us | Privacy policy | DMCA | Add/correct tabs | Request tabs | Top 50 tabs