» » »

Ac/Dc, Back In Black Tabs (ver.8)

Artists:  A B C D E F G H I J K L M N O P Q R S T U V W X Y Z # 

Back In Black Tabs (ver.8)

Ac/Dc Tabs
 Rating:
4/5 (4 votes)
Back In Black lessons Tabs too difficult? Try these video lessons and learn fast
1
                (Live)
Part 1
e----------------------------------------------------------|
B----------------------------------------------------------|
D----------------------------------------------------------|
G--------------------------------5-7-7/8\7-5-7---5---------|
A----7---5-5-5--5---4-4-4--4---7---------------7---7-------|
E-0--------------------------------------------------------|

Part 2
e----------------------------------------------------|
B----------------------------------------------------|
D-----------------------------7-X-7-7-X-7-7-7h9------|
G----------------------------------------------------|
A----7---5-5-5--5---4-4-4--4-------------------------|
E-0--------------------------------------------------|

e-------------------------------------------------|
B---8-10-10b--8--10F(12)10--8-11-8-10---8---------|
D-9-----------------------------------9---9-------|
G-------------------------------------------------|
A-------------------------------------------------|
E-------------------------------------------------|

e-------------------------------------------------|
B-------------------------------------------------|
D-9-9----9--11b--11b(12)11--9-12-11-9-------------|
G-----11------------------------------------------|
A-------------------------------------------------|
E-------------------------------------------------|

e------------------12---------------12--------------------------|
B---------------12----12--15F----------15-12----12--------------|
D-14b--14B--14F------------------------------14----12--14F------|
G---------------------------------------------------------------|
A---------------------------------------------------------------|
E---------------------------------------------------------------|

e--------------------------------------------------12----------------------|
B-15------------------------12--------15b-15-15F------15--12----12---------|
D----14b--14b(15)14--12--14----12----------------------------14----12------|
G---------------------------------14----------------------------------14---|
A--------------------------------------------------------------------------|
E--------------------------------------------------------------------------|

e-0-0-0-0----0-0-0-0----0-0-0-0--------12-----------|
B-5-5-3-5----3-3-2-3----2-2-0-2-----12----15F-------|
D-------------------------------14b-----------------|
G---------------------------------------------------|
A---------------------------------------------------|
E---------------------------------------------------|

e-0-0-0-0----0-0-0-0----0-0-0-0---------|
B-5-5-3-5----3-3-2-3----2-2-0-2--14F----|
D--------------------------------14F----|
G---------------------------------------|
A---------------------------------------|
E---------------------------------------|

then the Chours

Guitar riff
e----------------------------|     e----------------------------|
B----------------------------|     B----------------------------|
D----------------------------|     D----------------------------|
G----------------------------|     G---5-4-2-4----2---2---2-----|
A---5-4-2-4----2---2---2-----|     A-0---------3*---5---6---7---|
E-0---------3*---5---6---7---| X4  E----------------------------| X2 Then the
 *= less than a half bend                            the first X2 then Chours


b= half bend
F= Full bend
/= Slide
            
Submit corrections

comments powered by Disqus
↑ Back to top | Ac/Dc Tabs for Back In Black. Lyrics for acoustic guitar and electric guitar. 1 Tablatures and chords are parodies/interpretations of the original songs. You may use it for private study, scholarship, research or language learning purposes only