» » »

Back In Black Tabs (ver.2)

Artists:  A B C D E F G H I J K L M N O P Q R S T U V W X Y Z # 

Back In Black Tabs (ver.2)

Ac/Dc
Rating:
0/5 (0 votes)

Hard to play? Try these video lessons and learn fast.
                Artist = Ac/Dc
Title = Back In Black
Subbmitted By = mdman


/ = Down Stroke
 = Up Stroke
Po = Pull off
Bd = Bend Down
Sl = Slide

Intro
e-------/----/-----------------3Po0----------------
b-------3--3--3---/----/------------3Po0-----------
g-------2--2--2---2--2--2------------------2Bd--0---
d---2---0--0--2---2--2--2---------------------------
a---2-------------0--2--0---------------------------
e---0-----------------------------------------------


e-------/----/-------------------------------------
b-------3--3--3---/----/---------------------------
g-------2--2--2---2--2--2---------------------------
d---2---0--0--2---2--2--2---------------------------
a---2-------------0--2--0---2-----2-----2-----2-----
e---0--------------------------4-----5-----6-----7--


e-------/----/-----------------3Po0----------------
b-------3--3--3---/----/------------3Po0-----------
g-------2--2--2---2--2--2------------------2Bd--0---
d---2---0--0--2---2--2--2---------------------------
a---2-------------0--2--0---------------------------
e---0-----------------------------------------------


e-------/----/-------------------------------------
b-------3--3--3---/----/---------------------------
g-------2--2--2---2--2--2---------------------------
d---2---0--0--2---2--2--2---------------------------
a---2-------------0--2--0---2-----2-----2-----2-----
e---0--------------------------4-----5-----6-----7--


e------------------)---3--------------)------------------
b------------------)---3--3-----------)------------------
g---2-----4--2--4--)------2--2-----2--)---2-----4--2--4--
d---2--2--4--2--4--)---------2-----2--)---2--2--4--2--4--
a---0--2--2--0--2--)---------0-----0--)---0--2--2--0--2--
e------0-----------)------------3-----)------0-----------

    G
e---3--------)-----------
b---3--------)--3--3--3--
g---0--------)--2--2--2--
d---0--------)--0--0--0--
a---2--------)-----------
e---3--------)-----------


solo
e------------------------------------------------------------------
b-------------------------------------------------------12---12--Sl
g-------------------------------------------------------12---12--Sl
d-------------------------------------------------------12---12--Sl
a-----7--5-5--4-4-------------------------7--5-5--4-4--------------
e---0--------------0-0-0---0-0-0---0-0--0--------------------------
            
Hard to play? Try these video lessons and learn fast. | Correct




comments powered by Disqus
↑ Back to top | Tablatures and chords are parodies/interpretations of the original songs. You may use it for private study, scholarship, research or language learning purposes only