>
 >
Anything Goes

Anything Goes Guitar Tabs

Ac/Dc - Anything Goes chords, tabs, tablatures, lyrics

Guitar lessons | Add/correct | Request | Top 50 tabs Artists:  A B C D E F G H I J K L M N O P Q R S T U V W X Y Z 0-9

Anything Goes Guitar Tabs – Ac/Dc

CD, Sheet music, Poster

Do you like Anything Goes? Share with your friends now
Bass TabsTabs
AC/DC - Anything Goes, from Black Ice
Tuning:  Standard

INTRO:
|ANGUS                          Fill 1 at 0:08 (Used often throughout)
|-----------------------:||    |-------------------------|
|-----------------------:||    |-15-15-15-15-15-15-15-15-|
|-7-777-6-4-2-2---------:||    |-------------------------|
|-7-777-7-5-0-0-0000000-:||    |-------------------------|
|-----------------------:||    |-------------------------|
|-----------------------:||X4  |-USE-VERBRATO>>>---------|
|
|MALCOM
|-----------------------:||
|-----------------------:||
|-----------------------:||
|-7-7-7-7-7-7-7-7-7-7-7-:||
|-5-5-5-5-5-5-5-5-5-5-5-:||
|-PM>>>-----------------:||X4
|
|GUITAR 3 (Could be Angus & listen close for the timing)
|-14-14-14-14-14-14-12-10-10-12-10-10-12-:||
|-10-10-10-10-10-10-10-10-10-10-10-10-10-:||
|-11-11-11-11-11-11-11-11-11-11-11-11-11-:||
|----------------------------------------:||
|----------------------------------------:||
|-FINGER PICKING>>>----------------------:||X2 Continued...

GUITAR 3 Cont:
|-14-14-14-14-14-14-14-14-15-15-15-15-15-15-15-14-14-14-12-10-10-|
|-10-10-10-10-10-10-10-10-10-10-10-10-10-10-10-10-10-10-10-10-10-|
|-11-11-11-11-11-11-11-11-11-11-11-11-11-11-11-11-11-11-11-11-11-|
|----------------------------------------------------------------|
|----------------------------------------------------------------|
|-FINGER PICKING>>>----------------------------------------------|X1

VERSE 1
|ANGUS
|-----------------------:||
|-----------------------:||
|-7-777-6-4-2-2---------:||
|-7-777-7-5-0-0-0000000-:||
|-----------------------:||
|-----------------------:||X2
|
|MALCOM
|-----------------------:||
|-----------------------:||
|-----------------------:||
|-7-7-7-7-7-7-7-7-7-7-7-:||
|-5-5-5-5-5-5-5-5-5-5-5-:||
|-PM>>>-----------------:||X2

|ANGUS (*Riff Variation 2)
|-----------------------:||
|-----------------------:||
|-7-777-6-4-2-2-4-2-2-4-:||
|-7-777-7-5-0-0-0-0-0-0-:||
|-----------------------:||
|-----------------------:||X2
|
|MALCOM
|-----------------------:||
|-----------------------:||
|-----------------------:||
|-7-7-7-7-7-7-7-7-7-7-7-:||
|-5-5-5-5-5-5-5-5-5-5-5-:||
|-PM>>>-----------------:||X2

CHORUS
|ANGUS
|-3---------------3---------------3-------|
|-3---------------3---------------3-------|
|-0---------------0---------------0-------|
|-0---------------0---------------0-------|
|-0---------------0---------------0-------|
|-3---------------3---------------3-------|
|
|MALCOM
|-----------------------------------------|
|-----------------------------------------|
|-----------------------------------------|
|-5---------------5---------------5-------|
|-5---------------5---------------5-------|
|-3-3-3-3-3-3-3-3-3-3-3-3-3-3-3-3-3-3-3-3-|

|ANGUS (Mix in Riff 2)          Fill 1 (USED OFTEN!!)
|-----------------------:||    |-------------------------|
|-----------------------:||    |-15-15-15-15-15-15-15-15-|
|-7-777-6-4-2-2---------:||    |-------------------------|
|-7-777-7-5-0-0-0000000-:||    |-------------------------|
|-----------------------:||    |-------------------------|
|-----------------------:||X4  |-USE-VERBRATO>>>---------|
|
|MALCOM                         MALCOM Ends on:
|-----------------------:||    |-------------0-0---------|
|-----------------------:||    |-------------3-3---------|
|-----------------------:||    |-7-7-7-7-6-4-2-2---------|
|-7-7-7-7-7-7-7-7-7-7-7-:||    |-7-7-7-7-6-4-0-0---------|
|-5-5-5-5-5-5-5-5-5-5-5-:||    |-5-5-5-5-4-2-0-0---------|
|-PM>>>-----------------:||X3  |-------------------------|X1

VERSE 2 = VERSE 1
CHORUS 2 = CHORUS 1

BRIDGE
|ANGUS (I will keep it all together here)
|-12-12-10-10-12-12-10-10-12-12-10-10-12-12-12-10-|
|-10-10-10-10-10-10-10-10-10-10-10-10-10-10-10-10-|
|-11-11-11-11-11-11-11-11-11-11-11-11-11-11-11-11-|
|-------------------------------------------------|
|-------------------------------------------------|
|-FINGER PICKING>>>-------------------------------|Continued>>>
>>>
|-14-14-14-14-14-14-14-12-14-14-14-14-12-14-12-14-|
|-10-10-10-10-10-10-10-10-10-10-10-10-10-10-10-10-|
|-11-11-11-11-11-11-11-11-11-11-11-11-11-11-11-11-|
|-------------------------------------------------|
|-------------------------------------------------|
|-FINGER PICKING>>>-------------------------------|Continued>>>
>>>
|-12-12-10-10-12-12-10-10-12-12-10-10-12-12-10-10-|
|-10-10-10-10-10-10-10-10-10-10-10-10-10-10-10-10-|
|-11-11-11-11-11-11-11-11-11-11-11-11-11-11-11-11-|
|-------------------------------------------------|
|-------------------------------------------------|
|-FINGER PICKING>>>-------------------------------|Continued>>>
>>>
|-10-10-10-10-15-15-15-15-15-15-15-15-|
|-10-10-10-10-10-10-10-10-10-10-10-10-|
|-11-11-11-11-11-11-11-11-11-11-11-11-|
|-------------------------------------|
|-------------------------------------|
|-------------------------------------|
|
|
|MALCOM (Close Tab, sorry, they're 16th notes, I guess)
|-------------------------------------------------------------------|
|-------------------------------------------------------------------|
|-------------------------------------------------------------------|
|-2222222222222222-4444444444444444-222222222222222-222222222222222-|
|-0000000000000000-2222222222222222-000000000000000-000000000000000-|
|-------------------------------------------------------------------|
***The A & B's are played behind all the finger picking****

|ANGUS' SOLO
|--------10-------10------10----10-10------------------|
|------10-------10------10------10-10------10-10/15-15-|
|-12b14----12b14---12b14---12b14------12b14------------|
|------------------------------------------------------|
|------------------------------------------------------|
|------------------------------------------------------|

|--------10-------10------10----10-10---------------------------------|
|------10-------10------10------10-10------10h13p10h13p10h13p10h13p10-|
|-12b14----12b14---12b14---12b14------12b14---------------------------|
|---------------------------------------------------------------------|
|---------------------------------------------------------------------|
|---------------------------------------------------------------------|
***These are like 64th notes, super fast anyways****V
|-*10-10-10-10-12-13-13-13-13-10-7-10-7-10-7-13-13-13-13-13/-|
|------------------------------------------------------------|
|------------------------------------------------------------|
|------------------------------------------------------------|
|------------------------------------------------------------|
|------------------------------------------------------------|

|------10-10-----10--10-------10-10-10-10-10-10-|
|------------------12--12-10--------------------|
|-12b14-----12b14--12--12-11--------------------|
|---------------------------12------------------|
|-----------------------------------------------|
|-----------------------------------------------|

|------10--------10-------10-10-10--------------|
|---------------------------------12-10---------|
|-12b14--12b14-14-14-14-14--------12-11---------|
|-----------------------------------------------|
|-----------------------------------------------|
|-----------------------------------------------|
|
|MALCOM (Behind Solo, listen for timing, these are just the chords)
|-------|
|-------|
|-7---7-|
|-7-5-7-|
|-5-5-5-|
|---3---|
|
|Guitar 3 plays Riff Variation 2, from above

Bridge (AGAIN!) Then...

JUST ANGUS FINGER PICKING
|-14-14-14-14-14-14-14-12-12-10-10-10-10-12-10-10-10-10-10-12-10-10-12-10-10-|
|-10-10-10-10-10-10-10-10-10-10-10-10-10-10-10-10-10-10-10-10-10-10-10-10-10-|
|-11-11-11-11-11-11-11-11-11-11-11-11-11-11-11-11-11-11-11-11-11-11-11-11-11-|
|----------------------------------------------------------------------------|
|----------------------------------------------------------------------------|
|----------------------------------------------------------------------------|

Use Intro from here, with ANGUS (Guitar 3) FINGER PICKING

Well,that's the best that I could do... TIA for corrections!!!





Comments


Popular Ac/Dc tabs & chords
Big Balls 1 Bass Tabs
Hell's Bells 1 Bass Tabs
Jailbreak 1 Bass Tabs
Let Me Put My Love Into You 1 Bass Tabs
Dirty Deeds, Done Dirt Cheap Chords
Evil Walks Tabs
Night Of The Long Knives Tabs
Night Prowler Tabs
Safe In New York City Tabs
Shake A Leg Tabs


Song lyrics



↑ Back to top | Tablatures and chords are parodies/interpretations of the original songs. You may use it for private study, scholarship, research or language learning purposes only
© 2014 AZChords.com Contact us | Privacy policy | DMCA | Add/correct tabs | Request tabs | Top 50 tabs