» » »

Seeing Is Believing Tabs (ver.1)

Artists:  A B C D E F G H I J K L M N O P Q R S T U V W X Y Z # 

Seeing Is Believing Tabs (ver.1)

Acceptance
Rating:
3/5 (1 vote)

Hard to play? Try these video lessons and learn fast.
                -------------------------------------------------------------------------------
-------------------------------------------------------------------------------

Tuning: Drop D

Guitar 1
INTRO

Compression + Phaser
e|-----------------------------------------------------------------------------|
B|-----------------------------------------------------------------------------|
G|----7------------------------------------------------------------------------|
D|----x------------------------------------------------------------------------|
A|----5------------------------------------------------------------------------|
D|-----------------------------------------------------------------------------|


e|------------------------------------------------------------------------------|
B|------------------------------------------------------------------------------|
G|----7------------7---let ring-------------------------------------------------|
D|----7--7---x2----x------------------------------------------------------------|
A|----5--7---------5------------------------------------------------------------|
D|-------7----------------------------------------------------------------------|

Guitar 2
e|--------------------------------------end------------------------------------------|
B|-------------12--x-----------------------------------------------------------------|
G|------9--11------x---9--9h11---------9--9------------------------------------------|
D|-----------------x------------12-11--11-12-----------------------------------------|
A|-----------------------------------------------------------------------------------|
D|-----------------------------------x2----------------------------------------------|

VERSE

Guitar 1
(palm mute)
e|-----------------------------------------------------------------------------|
B|-----------------------------------------------------------------------------|
G|-----------------------------------------------------------------------------|
D|--0--7--5--------------------------------------------------------------------|
A|--0--7--5--------------------------------------------------------------------|
D|--0--7--5--------------------------------------------------------------------|

Guitar 2

picking varies when played live
e|----------------------------------------------------------------------------|
B|---let ring-----------------------------------------------------------------|
G|---7---------------------------------0----0----------0---0------------------|
D|---7--------------4--5--4---------0----5----0------0---5---7--5--0----------|
A|---5-----------------------5------------------------------------------------|
D|----------------2---------------5-------------5--5--------------------------|


PRE CHORUS

Guitar 1
e|---------------------------------------------------------------------------|
B|---------------------------------------------------------------------------|
G|---------------------------------------------------------------------------|
D|--2--4--5------------------------------------------------------------------|
A|--2--4--5------------------------------------------------------------------|
D|--2--4--5------------------------------------------------------------------|

Guitar 2
e|-----------------------------------------------------------------------------|
B|-----------------------------------------------------------------------------|
G|-----------------------------------------------------------------------------|
D|--------------7--7----------7--7---------------------------------------------|
A|--------5--5---------5--5----------5---5-------------7--5--------------------|
D|--5--5-----------------------------------x2--end on--------------------------|

CHORUS

Guitar 1

Mess around here with the D
e|---------------------------------------------------------------------------|
B|---------------------------------------------------------------------------|
G|-7--7----------------------------------------------------------------------|
D|-7--7----------------------------------------------------------------------|
A|-5--5----------------------------------------------------------------------|
D|-5--0----------------------------------------------------------------------|

Guitar 2
e|------------------------------------------------------------------------------------|
B|------------------------------------------------------------------------------------|
G|-----7---9-11-7---------------------------------------------------------------------|
D|-----7---x--x-x---------------------------------------------------------------------|
A|-----5---7s-9-s5--------------------------------------------------------------------|
D|------------------------------------------------------------------------------------|

BRIDGE

Bass intro then

Guitar 1

e|------------------------------------------------------------------------------------|
B|------------------------------------------------------------------------------------|
G|------------------------------------------------------------------------------------|
D|--2---2-0--5-----------------5-7----------------------------------------------------|
A|--2---2-0--5-----------------5-7----------------------------------------------------|
D|--2---2h0--5---x4-end--with--5s7----------------------------------------------------|


Guitar 2

e|---------------------------------------------------------------------------------|
B|---------------------------------------------------------------------------------|
G|----9-11--14-----------------9-11-7----------------------------------------------|
D|----x-x---x------------------x-x--x----------------------------------------------|
A|----7s9-s12------------------7s9-s5----------------------------------------------|
D|--------------end bridge w/------------------------------------------------------|


OUTRO

Same as intro all guitar end on

7
7
5
0 let ring
            
Hard to play? Try these video lessons and learn fast. | Correct




comments powered by Disqus
↑ Back to top | Tablatures and chords are parodies/interpretations of the original songs. You may use it for private study, scholarship, research or language learning purposes only