» » »

Acceptance, In Too Far Tabs (ver.2)

Artists:  A B C D E F G H I J K L M N O P Q R S T U V W X Y Z # 

In Too Far Tabs (ver.2)

Acceptance Tabs
Rating:
0/5 (0 votes)
In Too Far lessons Tabs too difficult? Try these video lessons and learn fast
                --------------------------------------------------------------------
Done by ear.  The 2nd guitar in this song is very difficult to
distinguish from the 1st guitar part, so I've approximated it as
best I could.  I call interpretive liberty on it, (especially on the
lead work during the bridge).  Questions/comments?  Drop me a line.
--------------------------------------------------------------------

Acceptance - "In Too Far"
(2005)  Phantoms

Tuning:  Drop Db (Db Ab Db Gb Bb eb)
same as  Drop C# (C# G# C# F# A# D#)


INTRO
   Guitar 1
eb|--------------------------------|--------------------------------|
Bb|--------------------------------|--------------------------------|
Gb|--------------------------------|--------------------------------|
Db|-7-7-7-7-7-7-7-7-7-7-7-7-7-7-7-7|---5-5-5-5-5-5-5---3-3-3-3-3-3-3|
Ab|-7-7-7-7-7-7-7-7-7-7-7-7-7-7-7-7|---5-5-5-5-5-5-5---3-3-3-3-3-3-3|
Db|-7-7-7-7-7-7-7-7-7-7-7-7-7-7-7-7|---5-5-5-5-5-5-5---3-3-3-3-3-3-3|
  |Guitar 2                        |                                |
eb|-5-5-5-3-3-3-5-5-5-3-3-3-3-3-3-3|-3-----------3------------------|
Bb|-5-5-5-5-5-5-5-5-5-5-5-5-5-5-5-5|-----1-0----------1-0-----------|
Gb|--------------------------------|---0-----2-0----0-----2---------|
Db|--------------------------------|--------------------------------|
Ab|--------------------------------|--------------------------------|
Db|--------------------------------|--------------------------------|


eb|--------------------------------|--------------------------------|
Bb|--------------------------------|--------------------------------|
Gb|--------------------------------|--------------------------------|
Db|-7-7-7-7-7-7-7-7-7-7-7-7-7-7-7-7|---5-5-5-5-5-5-5---3-3-3-3-3-3-3|
Ab|-7-7-7-7-7-7-7-7-7-7-7-7-7-7-7-7|---5-5-5-5-5-5-5---3-3-3-3-3-3-3|
Db|-7-7-7-7-7-7-7-7-7-7-7-7-7-7-7-7|---5-5-5-5-5-5-5---3-3-3-3-3-3-3|
  |                                |                                |
eb|-5-5-5-3-3-3-7-7-7-8-8-8-8-8-8-8|-3-----------3------------------|
Bb|-5-5-5-5-5-5-5-5-5-5-5-5-5-5-5-5|-----1-0----------1-0-----------|
Gb|--------------------------------|---0-----2-0----0-----2---------|
Db|--------------------------------|--------------------------------|
Ab|--------------------------------|--------------------------------|
Db|--------------------------------|--------------------------------|


VERSE
eb|--------------------------------|--------------------------------|
Bb|--------------------------------|--------------------------------|
Gb|--------------------------------|--------------------------------|
Db|-5-5-5-7-7-7-7-7-7-7-7-7-5-7-7-7|---5-5-5-5-5-5-5---0-0-0-0-0-0-0| 2X
Ab|-5-5-5-7-7-7-7-7-7-7-7-7-5-7-7-7|---5-5-5-5-5-5-5---0-0-0-0-0-0-0|
Db|-5-5-5-7-7-7-7-7-7-7-7-7-5-7-7-7|---5-5-5-5-5-5-5---0-0-0-0-0-0-0|
pm  * * * * * * * * * * * * * * * *    * * * * * * *   * * * * * * *


eb|--------------------------------|--------------------------------|
Bb|--------------------------------|--------------------------------|
Gb|--------------------------------|--------------------------------|
Db|--------------------------------|--------------------------------|
Ab|-5-5-5-7-7-7-7-7-7-7-7-7-5-7-7-7|---5-5-5-5-5-5-5---0-0-0-0-0-0-0|
Db|-5-5-5-7-7-7-7-7-7-7-7-7-5-7-7-7|---5-5-5-5-5-5-5---0-0-0-0-0-0-0|


eb|--------------------------------|--------------------------------|
Bb|--------------------------------|--------------------------------|
Gb|--------------------------------|--------------------------------|
Db|-3------------------------------|-5---5---5---5---5--------------|
Ab|-3------------------------------|-5---5---5---5---5--------------|
Db|-3------------------------------|-5-5-5-5-5-5-5-5-5--------------|
  |                                |                                |
eb|-3-----------3------------------|--------------------------------|
Bb|-----1-0----------1-0-----------|-121212121313131315\------------|
Gb|---0-----2-0----0-----2---------|--------------------------------|
Db|--------------------------------|-9-9-9-9-1010101012\------------|
Ab|--------------------------------|--------------------------------|
Db|--------------------------------|--------------------------------|



CHORUS
eb|--------------------------------|--------------------------------|
Bb|--------------------------------|--------------------------------|
Gb|--------------------------------|--------------------------------|
Db|-7-7-7-7-7-7-7-7-7-7-7-7-7-7-7-7|---5-5-5-5-5-5-5---3-3-3-3-3-3-3|
Ab|-7-7-7-7-7-7-7-7-7-7-7-7-7-7-7-7|---5-5-5-5-5-5-5---3-3-3-3-3-3-3|
Db|-7-7-7-7-7-7-7-7-7-7-7-7-7-7-7-7|---5-5-5-5-5-5-5---3-3-3-3-3-3-3|
  |                                |                                |  2x
eb|--------------------------------|--------------------------------|
Bb|--------------------------------|--------------------------------|
Gb|12121212---7---9---9-9---9-9-9-9|---7-7-7-7-7-7-7---5-5-5-5-5-5-5|
Db|10101010---5---7---7-7---7-7-7-7|---5-5-5-5-5-5-5---3-3-3-3-3-3-3|
Ab|10101010---5---7---7-7---7-7-7-7|---5-5-5-5-5-5-5---3-3-3-3-3-3-3|
Db|--------------------------------|--------------------------------|


eb|--------------------------------|--------------------------------|
Bb|--------------------------------|--------------------------------|
Gb|--------------------------------|--------------------------------|
Db|-7-7-7-7-7-7-7-7-7-7-7-7-7-7-7-7|---5-5-5-5-5-5-5---3-3-3-3-3-3-3|
Ab|-7-7-7-7-7-7-7-7-7-7-7-7-7-7-7-7|---5-5-5-5-5-5-5---3-3-3-3-3-3-3|
Db|-7-7-7-7-7-7-7-7-7-7-7-7-7-7-7-7|---5-5-5-5-5-5-5---3-3-3-3-3-3-3|
  |                                |                                |
eb|--------------------------------|--------------------------------|
Bb|--------------------------------|--------------------------------|
Gb|16161616161617171717171717171717|16161616161616161414141414141414|
Db|--------------------------------|--------------------------------|
Ab|14141414141415151515151515151515|14141414141414141212121212121212|
Db|--------------------------------|--------------------------------|


eb|--------------------------------|--------------------------------|
Bb|--------------------------------|--------------------------------|
Gb|--------------------------------|--------------------------------|
Db|-7-7-7-7-7-7-7-7-7-7-7-7-7-7-7-7|-0-0-0-0-0-0-3-----3-3-3-3-3-3-3|
Ab|-7-7-7-7-7-7-7-7-7-7-7-7-7-7-7-7|-0-0-0-0-0-0-3-----3-3-3-3-3-3-3|
Db|-7-7-7-7-7-7-7-7-7-7-7-7-7-7-7-7|-0-0-0-0-0-0-3-----3-3-3-3-3-3-3|
  |                                |                                |
eb|--------------------------------|--------------------------------|
Bb|--------------------------------|--------------------------------|
Gb|12121212---7---9---9-9---9-9-9-9|-2-2-2-2-2-2-5-----5-5-5-5-5-5-5|
Db|10101010---5---7---7-7---7-7-7-7|-0-0-0-0-0-0-3-----3-3-3-3-3-3-3|
Ab|10101010---5---7---7-7---7-7-7-7|-0-0-0-0-0-0-3-----3-3-3-3-3-3-3|
Db|--------------------------------|--------------------------------|


repeat VERSE (no guitars for 1st half)


Guitar 2 lick                         quick 1/2 bend-release
eb|-----------------------------------------------------------------|
Bb|-----------------------------------------------------------------|
Gb|12-12-12-14-14-14-14-14-14-14-14-14-12-14-^-14-------------------|
Db|-----------------------------------------------------------------| 2x
Ab|10-10-10-12-12-12-12-12-12-12-12-12-10-12-^-12-------------------|
Db|-----------------------------------------------------------------|


repeat CHORUS


BRIDGE
eb|--------------------------------|
Bb|--------------------------------|
Gb|--------------------------------|
Db|-3-3-3-3-3-3-3-3-3-3-3-3-3-3-3-3|
Ab|-3-3-3-3-3-3-3-3-3-3-3-3-3-3-3-3|
Db|-3-3-3-3-3-3-3-3-3-3-3-3-3-3-3-3|


eb|--------------------------------|--------------------------------|
Bb|--------------------------------|--------------------------------|
Gb|--------------------------------|--------------------------------|
Db|-7-7---10-10---3-----3-3-3-3-3-3|-7-7---10-10---3-----3-3-3-5-5-5|
Ab|-7-7---10-10---3-----3-3-3-3-3-3|-7-7---10-10---3-----3-3-3-5-5-5|
Db|-7-7---10-10---3-----3-3-3-3-3-3|-7-7---10-10---3-----3-3-3-5-5-5|
  |                                |                                |  2x
eb|--------------------------------|--------------------------------|
Bb|101213----12101213------10121312|1013--10--10--10--10-9----------|
Gb|--------------------------------|----12--10---9--12----10--------|
Db|--------------------------------|------------------------12------|
Ab|--------------------------------|--------------------------------|
Db|--------------------------------|--------------------------------|


eb|--------------------------------|--------------------------------|
Bb|--------------------------------|--------------------------------|
Gb|--------------------------------|--------------------------------|
Db|------------------------10-10-10|--------------------------------|
Ab|121012121012121012121012--------|121012121012121012121012--------|
Db|--------------------------------|------------------------10~-----|
   * * * * * * * * * * * * *  *  *  * * * * * * * * * * * *

repeat CHORUS


---------------------------------------------------------------------
            
Submit corrections

comments powered by Disqus
↑ Back to top | Acceptance Tabs for In Too Far. Lyrics for acoustic guitar and electric guitar. Tablatures and chords are parodies/interpretations of the original songs. You may use it for private study, scholarship, research or language learning purposes only