>
 >
In The Cold

In The Cold Guitar Tabs

Acceptance - In The Cold chords, tabs, tablatures, lyrics

Guitar lessons | Add/correct | Request | Top 50 tabs Artists:  A B C D E F G H I J K L M N O P Q R S T U V W X Y Z 0-9

In The Cold Guitar Tabs – Acceptance

CD, Sheet music, Poster

Do you like In The Cold? Share with your friends now
Tabs
Standard Tuning (E A D G B E)


Intro (Lead)
note: play first part twice, end on second part
e|-------------------------------------4-------------|----|
B|--5p0-4h5p0--5p0-4h5p0--5p0-4p0-2p0----5-4-5-4-----|----|
G|-----------------------------------------------6-4-|-6~-|
D|---------------------------------------------------|----|
A|---------------------------------------------------|----|
E|---------------------------------------------------|----|

Intro (Rhythm)
e|--0~--0~-------0~--|
B|--0~--0~-------0~--|
G|--6~--2~--1--4/6~--|
D|--6~--2~--2--4/6~--| x2
A|--4~--0~--2--2/4~--|
E|----------0--------|

Verse (Lead)
note: come in after like 12 measures or so, play this, 
wait another 2 1/2 measures and play it again
e|-----------|
B|-----------|
G|--9-9-9-9--|
D|--x-x-x-x--|
A|--7-7-7-7--|
E|-----------|

Verse (Rhythm)
note: play first part 4 times, end on second part
e|---------------------|-0~-0~-|
B|---------------------|-0~-0~-|
G|-4/6--22----22-------|-2~-2~-|
D|-4/6--22-22-22-22-44-|-2~-2~-|
A|-2/4--00-22-00-22-44-|-0~-0~-|
E|---------00----00-22-|-------|

Chorus (Lead)
note: hard to hear, so it might be really off, but sounds okay...
e|------------|
B|------------|
G|--8/9-8-4-6-|
D|--x/x-x-x-x-|
A|--6/7-6-2-4-|
E|------------|

Chorus (Rhythm)
e|----------------------|
B|---------------00-000-|
G|-66-666--------22-222-|
D|-66-666-22-222-22-222-| x4
A|-44-444-22-222-00-000-|
E|--------00-000--------|

Intro (Lead)
e|-------------------------------------4----------------|
B|--5p0-4h5p0--5p0-4h5p0--5p0-4p0-2p0----5-4-5-4--------|
G|-----------------------------------------------6-4-6~-|
D|------------------------------------------------------|
A|------------------------------------------------------|
E|------------------------------------------------------|

Intro (Rhythm)
e|--0~--0~-------0~--|
B|--0~--0~-------0~--|
G|--6~--2~--1--4/6~--|
D|--6~--2~--2--4/6~--| 
A|--4~--0~--2--2/4~--|
E|----------0--------|

Verse (Lead)
note: come in after like 12 measures or so, first part, 
wait another 2 1/2 measures and second part
e|----------|----------|
B|----------|----------|
G|----------|-9-9-9-9--|
D|----------|-x-x-x-x--|
A|-44444444-|-7-7-7-7--|
E|----------|----------|
  PM........

Verse (Rhythm)
note: play first part 4 times, end on second part
e|---------------------|-0~-0~-|
B|---------------------|-0~-0~-|
G|-4/6--22----22-------|-2~-2~-|
D|-4/6--22-22-22-22-44-|-2~-2~-|
A|-2/4--00-22-00-22-44-|-0~-0~-|
E|---------00----00-22-|-------|

Chorus (Lead)
e|------------|
B|------------|
G|--8/9-8-4-6-|
D|--x/x-x-x-x-| x4
A|--6/7-6-2-4-|
E|------------|

Chorus (Rhythm)
e|----------------------|
B|---------------00-000-|
G|-66-666--------22-222-|
D|-66-666-22-222-22-222-| x4
A|-44-444-22-222-00-000-|
E|--------00-000--------|

Bridge-sorta deal (Lead)
note: play this twice quarter notes, then in 8th notes twice, then play this 4 times over again
e|--------------------------|-0~-|
B|--------------------------|-0~-|
G|-9-8-4~-4/6~--9-8-4~-4/6~-|-2~-|
D|-x-x-x~-x/x~--x-x-x~-x/x~-|-2~-| x8
A|-7-6-2~-2/4~--7-6-2~-2/4~-|-0~-|
E|--------------------------|----|

Bridge-sorta deal (Lead)
note: listen to the song, and you'll hear when to play this...
e|----------------------|
B|---------------00-000-|
G|-66-666--------22-222-|
D|-66-666-22-222-22-222-| x4
A|-44-444-22-222-00-000-|
E|--------00-000--------|

note: this is played too, at the end, again, listen to the song. 
but you'll end the song playing the last riff over and over again...
e|-------------------------------------4-------------|
B|--5p0-4h5p0--5p0-4h5p0--5p0-4p0-2p0----5-4-5-4-----|
G|-----------------------------------------------6-4-|
D|---------------------------------------------------|
A|---------------------------------------------------|
E|---------------------------------------------------|





Comments


Popular Acceptance tabs & chords
Ad Astra Per Aspera Bass Tabs
So Contagious Bass Tabs
Black Line To Battlefield Chords
Different 1 Chords
Different Tabs
In Too Far 1 Tabs
Take Cover 2 Tabs
Black Line To Battlefield Ukulele
So Contagious Ukulele
This Conversation Is Over Ukulele


Song lyrics



↑ Back to top | Tablatures and chords are parodies/interpretations of the original songs. You may use it for private study, scholarship, research or language learning purposes only
© 2014 AZChords.com Contact us | Privacy policy | DMCA | Add/correct tabs | Request tabs | Top 50 tabs