» » »

Breathless Tabs (ver.1)

Artists:  A B C D E F G H I J K L M N O P Q R S T U V W X Y Z # 

Breathless Tabs (ver.1)

Acceptance
Rating:
0/5 (0 votes)

Hard to play? Try these video lessons and learn fast.
                ----------------------------------------------------------------------------
---------------------------------------------------------------------------

Tuning: Drop D

* Palm Muted
~ Let Ring
p Pull
/ Slide
) Strum until Chord Change

Intro/Verse 
e|-------------------------------------------------------------------------|
B|-------------------------------------------------------------------------|
G|-------------------------------------------------------------------------|
D|-4)-0)-9)----------------------------------------------------------------|
A|-4)-0)-9)----------------------------------------------------------------|
E|-4)-0)-9)----------------------------------------------------------------|
   *  *  *
Chorus
e|-------------------------------------------------------------------------|
B|-------------------------------------------------------------------------|
G|-------------------------------------------------------------99999-------|
D|-44-7-44-7-44-4/777-2--6p4-44-4/777-2-44-44-4/777-2-6p4-44-4/77777-------|
A|-44---44---44-4/777-2------44-4/777-2-44-44-4/777-2-----44-4/77777-------|
E|-44---44---44-4/777-2------44-4/777-2-44-44-4/777-2-----44-4/77777-------|

Repeat Verse

Pre-Bridge Part
e|-------------------------------------------------------------------------|
B|-------------------------------------------------------------------------|
G|-666-555-66-66-55-66-22-2~-----------------------------------------------|
D|-444-666-77-44-66-77-44-4~-----------------------------------------------|
A|-------------------------------------------------------------------------|
E|-------------------------------------------------------------------------|
   **  **  *  *  *  *  **

Bridge (And time stands still...)
e|-------------------------------------------------------------------------|
B|-------------------------------------------------------------------------|
G|-------------------------------------------------------------------------|
D|-7)-0)-------------------------------------------------------------------|
A|-7)-0)-------------------------------------------------------------------|
E|-7)-0)-------------------------------------------------------------------|

Repeat Chorus
            
Hard to play? Try these video lessons and learn fast. | Correct




comments powered by Disqus
↑ Back to top | Tablatures and chords are parodies/interpretations of the original songs. You may use it for private study, scholarship, research or language learning purposes only