» » »

Accept, Teutonic Terror Tabs (ver.2)

Artists:  A B C D E F G H I J K L M N O P Q R S T U V W X Y Z # 

Teutonic Terror Tabs (ver.2)

Accept Tabs
 Rating:
4/5 (4 votes)
Teutonic Terror lessons Tabs too difficult? Try these video lessons and learn fast
1
                -----------------------------------------------------------------------------
                           TEUTONIC TERROR - Accept
-----------------------------------------------------------------------------

Tuning: Standard (EADGBE)


Intro Guitar 1
e|------------------------------------------------|x2
B|------------------------------------------------|
G|------------------------------------------------|
D|------------------------------------------------|
A|-2-2-2-2-2-2-2-2-2-5\4-2-2-2-2-2-2-2-5\4-2-5--7-|
E|-0-0-0-0-0-0-0-0-0-3\2-0-0-0-0-0-0-0-3\2-0-3--5-|

Intro Guitar 2
e|-12--12---12-12-12---12--12---12-12-12---12--12---12-12-12--|
B|-12--12---12-12-12---11--11---11-11-11---10--10---10-10-10--|
G|--9---9----9--9--9----9---9----9--9--9----9---9----9--9--9--|
D|------------------------------------------------------------|
A|------------------------------------------------------------|
E|------------------------------------------------------------|
          play these at the same time with 2 guitars:
e|---------------------------|    e|-----2-3---------0-2-----|  x2
B|---------------------------|    B|-------------------------|
G|-----7-9---------5-7-------|    G|-5-4-----5-4-4-2-----4-2-| 
D|-7-5-----7-5-5-4-----5-4---|    D|-------------------------|
A|---------------------------|    A|-------------------------|
E|---------------------------|    E|-------------------------|
                                      


Verse
e|----------------------------|----------------------|
B|----------------------------|----------------------|
G|----------------------------|----------------------|
D|----------------------------|----------------------|
A|-2-4-5-2-2-2-2-2-2-2-2-2----|-2-2-8\7---7----------|Repeat until
E|-0-2-3-0-0-0-0-0-0-0-0-0--x3|-0-0-6\5-0-5--0-3-5-6-|the Verse ends

Pre-Chorus
e|-3------------3-----------------------------------------------------------|
B|-3--3---------3--3--------------------------------------------------------|
G|-0--2---------0--2----------------------------5--7-------2---4----4-4-4---|
D|----0---2--------0---2------------------------5--7---5---2---4----4-4-4---|
A|--------2------------2------------------------3--5---5---0---2----2-2-2---|
E|--------0------------0-0-0-0-0-0-0-0-0-0-0-0---------3--------------------|

Chorus
e|------------------------------------------------------------------------|
B|------------------------------------------------------------------------|
G|--------------------------------------------------------------7---9---7-|
D|-5-------4-5-7-------5-7-9-----7-----5---------4-5-----5------7---9---7-|
A|---7-7-7-------7-7-7-------7-7---7-7---7-7-7-7-----7-7---7-7--5---7---5-|
E|------------------------------------------------------------------------|

e|----------------------------------------------3--------------3---|
B|------------------------------------------3---3----------3---3---|
G|--------------------------------------5---2---0----------2---0---|
D|-5-------5-7-9-------7-9-10-----9-----5---0-------2------0-------|
A|---7-7-7-------7-7-7-------7-7---7-7--3-----------2--------------|
E|--------------------------------------------------0--------------|

Intro Riff is played again on both guitars

Verse 2 

Chorus x2

Pre-Solo Guitar 1
e|------------------------------------------|
B|------------------------------------------|
G|------------------------------------------|
D|-2-2-2-2---2-2-2-2---2-2-2-2-2-2---2-2-2--|
A|-2-2-2-2---2-2-2-2---2-2-2-2-2-2---2-2-2--|
E|-0-0-0-0---0-0-0-0---0-0-0-0-0-0-3-0-0-0--|

Pre-Solo Guitar 2 (with Wah)
e|-----------------------------------|
B|-----------------------------------|
G|-----------------------------------|
D|-----------------------------------|
A|-----------------------------5--2--|
E|-7--6--5--3--0---7--6--5-0-0-3--0--|

Guitar Solo (I don't have it right now, sorry)

Chorus x2

************************************

| /   slide up
| \   slide down
| h   hammer-on
| p   pull-off
| ~   vibrato
| +   harmonic
| x   Mute note
| b   Bend
| pb  Pre-bend
| br  Bend release
| pbr Pre-bend release
| brb Bend release bend

************************************
            
Submit corrections

comments powered by Disqus
↑ Back to top | Accept Tabs for Teutonic Terror. Lyrics for acoustic guitar and electric guitar. 1 Tablatures and chords are parodies/interpretations of the original songs. You may use it for private study, scholarship, research or language learning purposes only