>
 >
Russian Roulette

Russian Roulette Bass Tabs

Accept - Russian Roulette chords, tabs, tablatures, lyrics

Guitar lessons | Add/correct | Request | Top 50 tabs Artists:  A B C D E F G H I J K L M N O P Q R S T U V W X Y Z 0-9

Russian Roulette Bass Tabs – Accept

CD, Sheet music, Poster

Do you like Russian Roulette? Share with your friends now
Bass Tabs
                               Russian Roulette                                 


                                                                          Accept
Bass



     W                   W                   W                 
G||-------------------|-------------------|-------------------|
D||-------------------|-------------------|-------------------|
A||-------------------|-------------------|-------------------|
E||-------------------|-------------------|-------------------|


  W                   W                   W                   W                 
-------------------|-------------------|-------------------|-------------------|
-------------------|-------------------|-------------------|-------------------|
-------------------|-------------------|-------------------|-------------------|
-------------------|-------------------|-------------------|-------------------|


  W                   W                   W                   W                 
-------------------|-------------------|-------------------|-------------------|
-------------------|-------------------|-------------------|-------------------|
-------------------|-------------------|-------------------|-------------------|
-------------------|-------------------|-------------------|-------------------|


  W                   W                   W                   W                 
-------------------|-------------------|-------------------|-------------------|
-------------------|-------------------|-------------------|-------------------|
-------------------|-------------------|-------------------|-------------------|
-------------------|-------------------|-------------------|-------------------|


  W                   W                   W                   W                 
-------------------|-------------------|-------------------|-------------------|
-------------------|-------------------|-------------------|-------------------|
-------------------|-------------------|-------------------|-------------------|
-------------------|-------------------|-------------------|-------------------|


  W                   W                   W                   W                 
-------------------|-------------------|-------------------|-------------------|
-------------------|-------------------|-------------------|-------------------|
-------------------|-------------------|-------------------|-------------------|
-------------------|-------------------|-------------------|-------------------|


  W                   W                   W                   W                 
-------------------|-------------------|-------------------|-------------------|
-------------------|-------------------|-------------------|-------------------|
-------------------|-------------------|-------------------|-------------------|
-------------------|-------------------|-------------------|-------------------|


  H.           E  E     Q    Q    E  E  E  E     E  E  E  E  E  E  E  E   
---------------------|------------------------|--------------------------|
---------------------|------------------------|--------------------------|
------------------2--|--L----2----2--2--2--2--|--2--2--2--2--2--2--0-----|
---------------------|------------------------|-----------------------2--|


  E  E  E  E  E  E  E  E     E  E  E  E  E  E  E  E   
--------------------------|--------------------------|
--------------------------|--------------------------|
--------------------------|--------------------------|
--2--2--2--2--2--2--2--2--|--2--2--2--2--2--2--2--2--|


  E  E  E  E  E  E  E  E     E  E  E  E  E  E  E  E   
--------------------------|--------------------------|
--------------------------|--------------------------|
--------------------------|--------------------------|
--2--2--2--2--2--2--2--2--|--2--2--2--2--2--2--2--2--|


  E  E  E  E  E  E  E  E     E  E  E  E  E  E  E  E   
--------------------------|--------------------------|
--------------------------|--------------------------|
--------------------------|--------------------------|
--2--2--2--2--2--2--2--2--|--2--2--2--2--2--2--2--2--|


  E  E  E  E  E  E  E  E     E  E  E  E  E  E  E  E   
--------------------------|--------------------------|
--------------------------|--------------------------|
--------------------------|--------------------------|
--2--2--2--2--2--2--2--2--|--2--2--2--2--2--2--2--2--|


  E  E  E  E  E  E  E  E     E  E  E  E  E  E  E  E   
--------------------------|--------------------------|
--------------------------|--------------------------|
--------------------------|--------------------------|
--2--2--2--2--2--2--2--2--|--2--2--2--2--2--2--2--2--|


  E  E  E  E  E  E  E  E     E  E  E  E  E  E  E  E   
--------------------------|--------------------------|
--------------------------|--------------------------|
--------------------------|--------------------------|
--2--2--2--2--2--2--2--2--|--2--2--2--2--2--2--2--2--|


  E  E  E  E  E  E  E  E     E  E  E  E  E  E  E  E   
--------------------------|--------------------------|
--------------------------|--------------------------|
--------------------------|--------------------------|
--2--2--2--2--2--2--2--2--|--2--2--2--2--2--2--2--0--|


  E  E  E  E  E  E  E  E     E  E  E  E  E  E  E  E   
--------------------------|--------------------------|
--------------------------|--------------------------|
--------------------------|--------------------------|
--0--0--0--0--0--0--0--0--|--0--0--0--0--0--0--0--0--|


  E  E  E  E  E  E  E  E     E  E  E  E  E  E  E  E    
--------------------------|---------------------------|
--------------------------|-----------------4--4------|
--------------------------|-----------------------4\--|
--0--0--0--0--0--0--0--0--|--0--0--0--0--0------------|


  E  E  E  E  E  E  E  E     E  E  E  E  E  E  Q       Q    E  Q    E  E  E   
--------------------------|-------------------------|------------------------|
--------------------------|-------------------------|------------------------|
--4--4--4--4--4--4--4--4--|--4--0--0--0--0--0-------|--4----4----------------|
--------------------------|--------------------0----|----------0----0--0--0--|


  E  E  E  E  E  E  Q       E  E  E  E  E  E  E  E     E  E  E  E  E  E  E  E   
-------------------------|--------------------------|--------------------------|
-------------------------|--------------------------|--------------------------|
--------------2--4--2----|--4--4--4-----------------|-----------------4--4-----|
--0--0--0--0-------------|-----------0--0--0--0--0--|--0--2--2--2--------------|


  E  E  E  E  E  E  E  E     E  E  E  E  E  E  Q       Q    E  Q    E  E  E   
--------------------------|-------------------------|------------------------|
--------------------------|-------------------------|------------------------|
--4--4--4-----------------|--------------2--4--2----|--4----4-------------2--|
-----------0--0--0--0--0--|--0--0--0--0-------------|----------0----0--2-----|


  W                   H.           E  E     E  E  E  E  E  E  E  E   
-------------------|---------------------|--------------------------|
-------------------|---------------------|--------------------------|
--L----------------|--L------------0--2--|--L--2--2--2--2--2--2--2--|
-------------------|---------------------|--------------------------|


  E  E  E  E  E  E  E  E     E  E  E  E  E  E  E  E   
--------------------------|--------------------------|
--------------------------|--------------------------|
--2--2--2--2--2--2--0-----|--------------------------|
-----------------------2--|--2--2--2--2--2--2--2--2--|


  E  E  E  E  E  E  E  E     E  E  E  E  E  E  E  E   
--------------------------|--------------------------|
--------------------------|--------------------------|
--------------------------|--------------------------|
--2--2--2--2--2--2--2--2--|--2--2--2--2--2--2--2--2--|


  E  E  E  E  E  E  E  E     E  E  E  E  E  E  E  E   
--------------------------|--------------------------|
--------------------------|--------------------------|
--------------------------|--------------------------|
--2--2--2--2--2--2--2--2--|--2--2--2--2--2--2--2--2--|


  E  E  E  E  E  E  E  E     E  E  E  E  E  E  E  E   
--------------------------|--------------------------|
--------------------------|--------------------------|
--------------------------|--------------------------|
--2--2--2--2--2--2--2--2--|--L--2--2--2--2--2--2--2--|


  E  E  E  E  E  E  E  E     E  E  E  E  E  E  E  E   
--------------------------|--------------------------|
--------------------------|--------------------------|
--------------------------|--------------------------|
--2--2--2--2--2--2--2--2--|--2--2--2--2--2--2--2--2--|


  E  E  E  E  E  E  E  E     E  E  E  E  E  E  E  E   
--------------------------|--------------------------|
--------------------------|--------------------------|
--------------------------|--------------------------|
--2--2--2--2--2--2--2--2--|--2--2--2--2--2--2--2--2--|


  E  E  E  E  E  E  E  E     E  E  E  E  E  E  E  E   
--------------------------|--------------------------|
--------------------------|--------------------------|
--------------------------|--------------------------|
--2--2--2--2--2--2--2--2--|--2--2--2--2--2--2--2--2--|


  E  E  E  E  E  E  E  E     E  E  E  E  E  E  E  E   
--------------------------|--------------------------|
--------------------------|--------------------------|
--------------------------|--------------------------|
--2--2--2--2--2--2--2--0--|--0--0--0--0--0--0--0--0--|


  E  E  E  E  E  E  E  E     E  E  E  E  E  E  E  E   
--------------------------|--------------------------|
--------------------------|--------------------------|
--------------------------|--------------------------|
--0--0--0--0--0--0--0--0--|--0--0--0--0--0--0--0--0--|


  E  E  E  E  E  E  E  E      E  E  E  E  E  E  E  E   
---------------------------|--------------------------|
-----------------4--4------|--------------------------|
-----------------------7\--|--4--4--4--4--4--4--4--4--|
--0--0--0--0--0------------|--------------------------|


  E  E  E  E  E  E  E  E     Q    E  E  E  E  E  E     E  E  E  E  E  E  Q     
--------------------------|-------------------------|-------------------------|
--------------------------|-------------------------|-------------------------|
--4--0--0--0--0--0--------|--4----4-----------------|--------------2--4--2----|
--------------------0--0--|----------0--0--0--0--0--|--0--0--0--0-------------|


  E  E  E  E  E  E  E  E     E  E  E  E  E  E  E  E   
--------------------------|--------------------------|
--------------------------|--------------------------|
--4--4--4-----------------|-----------------4--4-----|
-----------0--0--0--0--0--|--0--2--2--2--------------|


  E  E  E  E  E  E  E  E     E  E  E  E  E  E  Q       E  E  E  E  E  E  E  E   
--------------------------|-------------------------|--------------------------|
--------------------------|-------------------------|--------------------------|
--4--4--4-----------------|--------------2--4--2----|--4--4--4--------------2--|
-----------0--0--0--0--0--|--0--0--0--0-------------|-----------0--0--0--0-----|


  E  E  E  E  E  E  E  E     E  E  E  E  E  E  E  E   
--------------------------|--------------------------|
--------------------------|--------------------------|
--2--2--2--2--2--2--2--2--|--0--0--0--0--0--0--0--0--|
--------------------------|--------------------------|


  E  E  E  E  E  E  E  E     E  E  E  E  E  E  E  E   
--------------------------|--------------------------|
--------------------------|--------------------------|
--------------------------|-----------------------4--|
--0--0--0--0--0--0--0--0--|--2--2--2--2--2--2--2-----|


  E  E  E  E  E  E  E  E     E  E  E  E  E  E  E  E   
--------------------------|--------------------------|
--------------------------|--------------------------|
--L--4--4--4--4--4--4--2--|--0--0--0--0--0--0--0-----|
--------------------------|-----------------------0--|


  E  E  E  E  E  E  E  E     E  E  E  E  E  E  E  E     Q.     H        E   
--------------------------|--------------------------|---------------------|
--------------------------|--------------------------|---------------------|
--------------------------|--2--2--2--2--2--2--2-----|---------------------|
--0--0--0--0--0--0--0--0--|-----------------------4--|--L------4--------L--|


  W                   Q.     Q    E  E  E     E  E  E  E  E  E  Q     
-------------------|-----------------------|-------------------------|
-------------------|-----------------------|-------------------------|
-------------------|--4--------------------|--------------2--4--2----|
--L----------------|---------0----0--0--0--|--0--0--0--0-------------|


  Q.     Q    E  Q       E  E  E  E  E  E  E  E     Q.     Q    E  E  E   
----------------------|--------------------------|-----------------------|
----------------------|--------------------------|-----------------------|
--4-------------------|--0--0--0--0--0-----------|--4--------------------|
---------0----0--0----|-----------------4--2--0--|---------0----0--0--0--|


  E  E  E  E  E  E  Q       Q.     Q    E  E  E     E  E  E  E  E  S S E  E   
-------------------------|-----------------------|---------------------------|
-------------------------|-----------------------|---------------------------|
--------------2--4--2----|--4--------------------|--0--0--0--0--0------------|
--0--0--0--0-------------|---------0----0--0--0--|-----------------4-5-2--0--|


  Q.     Q.     E  E     E  E  E  E  E  E  Q       Q.     Q    E  E  E   
----------------------|-------------------------|-----------------------|
----------------------|-------------------------|-----------------------|
--4-------------------|--------------2--4--2----|--4--------------------|
---------0------0--0--|--0--0--0--0-------------|---------0----0--0--0--|


  E  E  E  E  E  E  E  E     Q.     Q    E  E  E     E  E  E  E  E  E  Q     
--------------------------|-----------------------|-------------------------|
--------------------------|-----------------------|-------------------------|
--0--0--0--0--------------|--4--------------------|--------------2--4--2----|
--------------5--4--2--0--|---------0----0--0--0--|--0--0--0--0-------------|


  Q.     Q    E  E  E     E  E  E  E  E  E  E  E     E  E  E  E  E  E  E  E   
-----------------------|--------------------------|--------------------------|
-----------------------|--------------------------|--------------------------|
--4--------------------|--2--2--2--2--2--2--------|--0--0--0--0--0--0--0--0--|
---------0----2--0--4--|--------------------4--5--|--------------------------|


  E  E  E  E  E  E  E  E     E  E  E  E  E  E  E  E   
--------------------------|--------------------------|
--------------------------|--------------------------|
--------------------------|-----------------------4--|
--0--0--0--0--0--0--0--0--|--2--2--2--2--2--2--2-----|


  E  E  E  E  E  E  E  E     E  E  E  E  E  E  E  E   
--------------------------|--------------------------|
--------------------------|--------------------------|
--L--4--4--4--4--4--4--0--|--0--0--0--0--0--0--0-----|
--------------------------|-----------------------0--|


  E  E  E  E  E  E  E  E     E  E  E  E  E  E  E  E     Q.     H        E   
--------------------------|--------------------------|---------------------|
--------------------------|--------------------------|---------------------|
--------------------------|--2--2--2--2--2--2--2-----|---------------------|
--0--0--0--0--0--0--0--0--|-----------------------4--|--L------4--------4--|


  E  E  E  E  E  E  Q        W                   W                 
--------------------------|-------------------|-------------------|
--------------------------|-------------------|-------------------|
--------------------------|-------------------|-------------------|
--4--4--4--4--4--4--4\----|-------------------|-------------------|


  E  E  E  E  E  E  Q       H           W                   W                 
-------------------------|-----------|-------------------|-------------------|
-------------------------|-----------|-------------------|-------------------|
--0--0--0----------------|-----------|-------------------|-------------------|
-----------0--0--0--2----|--L--------|-------------------|-------------------|


  W                   Q    E  E  E  E  E  E     E  E  E  E  E  E  Q     
-------------------|-------------------------|-------------------------|
-------------------|-------------------------|-------------------------|
-------------------|--4----4-----------------|--------------2--4--2----|
-------------------|----------0--0--0--0--0--|--0--0--0--0-------------|


  E  E  E  E  E  E  E  E     E  E  E  E  E  E  E  E   
--------------------------|--------------------------|
--------------------------|--------------------------|
--4--4--4-----------------|-----------------4--4-----|
-----------0--0--0--0--0--|--0--2--2--2--------------|


  E  E  E  E  E  E  E  E     E  E  E  E  E  E  Q       E  E  E  E  E  E  E  E   
--------------------------|-------------------------|--------------------------|
--------------------------|-------------------------|--------------------------|
--4--4--4-----------------|--------------2--4--2----|--4--4--4--------------2--|
-----------0--0--0--0--0--|--0--0--0--0-------------|-----------0--0--0--0-----|


  E  E  E  E  E  E  E  E     Q    E  E  E  E  E  E     E  E  E  E  E  E  Q     
--------------------------|-------------------------|-------------------------|
--------------------------|-------------------------|-------------------------|
--2--2--2--2--2--2--2--2--|--4----4-----------------|--------------2--4--2----|
--------------------------|----------0--0--0--0--0--|--0--0--0--0-------------|


  E  E  E  E  E  E  E  E     E  E  E  E  E  E  E  E   
--------------------------|--------------------------|
--------------------------|--------------------------|
--4--4--4-----------------|-----------------4--4-----|
-----------0--0--0--0--0--|--0--2--2--2--------------|


  E  E  E  E  E  E  E  E     E  E  E  E  E  E  Q       H        S Q.     S  
--------------------------|-------------------------|----------------------|
--------------------------|-------------------------|----------------------|
--4--4--4-----------------|--------------2--4--2----|--4--------L----------|
-----------0--0--0--0--0--|--0--0--0--0-------------|-------------0------L-|


  H.              W                   W                   W                 
---------------|-------------------|-------------------|-------------------|
---------------|-------------------|-------------------|-------------------|
---------------|--2----------------|--L----------------|--L----------------|
--L------------|-------------------|-------------------|-------------------|


  W                   W                   W                   W                 
-------------------|-------------------|-------------------|-------------------|
-------------------|-------------------|-------------------|-------------------|
--L----------------|--L----------------|--L----------------|--L----------------|
-------------------|-------------------|-------------------|-------------------|


  W                   H        H           W                  
-------------------|--------------------|-------------------||
-------------------|--------------------|-------------------||
--L----------------|-----------4--------|-------------------||
-------------------|--2-----------------|-------------------||




Duration Legend
---------------
W - whole
H - half
Q - quarter
E - 8th
S - 16th
T - 32nd
X - 64th
. - note dotted
|-n-|  - n-tuplets


Tablature Legend
----------------
L - tied note
x - dead note
g - grace note
(n) - ghost note
> - accentuded note
NH - natural harmonic
AH - artificial harmonic
TH - tapped harmonic
SH - semi harmonic
PH - pitch harmonic
h - hammer on
p - pull off
b - bend
br - bendRelease
pb - preBend
pbr - preBendRelease
brb - bendReleaseBend
\n/ - tremolo bar dip
\n - tremolo bar dive
-/n - tremolo bar Release up
/n\ - tremolo bar inverted dip
/n - tremolo bar return
-\n - tremolo bar Release down
S - shift slide
s - legato slide
/ -  slide into from below or out of upwards
\ -  slide into from above or out of downwards
~ - vibrato
W - wide vibrato
tr - trill
TP - tremolo picking
T - tapping
S - slap
P - pop
< - fade in
^ - brush up
v - brush down





Comments


Popular Accept tabs & chords
Save Us Bass Tabs
Balls To The Wall Intro Tabs
Dead On Tabs
Living Fot Tonight Tabs
No Time To Loose Tabs
Princess Of The Dawn 1 Tabs
Screaming For A Love-Bite Tabs
Stalingrad 1 Tabs
The King Tabs
Winter Dreams Ukulele


Song lyrics



↑ Back to top | Tablatures and chords are parodies/interpretations of the original songs. You may use it for private study, scholarship, research or language learning purposes only
© 2014 AZChords.com Contact us | Privacy policy | DMCA | Add/correct tabs | Request tabs | Top 50 tabs