>
 >
Run If You Can

Run If You Can Bass Tabs

Accept - Run If You Can chords, tabs, tablatures, lyrics

Guitar lessons | Add/correct | Request | Top 50 tabs Artists:  A B C D E F G H I J K L M N O P Q R S T U V W X Y Z 0-9

Run If You Can Bass Tabs – Accept

CD, Sheet music, Poster

Do you like Run If You Can? Share with your friends now
Bass Tabs
                                Run If You Can                                  


                                                                          Accept
Bass



     H           E   E  E  E  E  E  E  E     E   E  E  E  E  E  E  E   
G||-----------|---------------------------|---------------------------|
D||-----------|---------------------------|---------------------------|
A||-----------|--5h--7--7--7--7--7--7--7--|--5h--7--7-----------------|
E||-----------|---------------------------|------------5-----5--5--5--|


  E   E  E  E  E  E  E  E     E  E  E  E  E  E  E  E   
---------------------------|--------------------------|
---------------------------|--3--2-----------------2--|
--5h--7--7--7--7--7--7--7--|--------5--3--2--3--5-----|
---------------------------|--------------------------|


  E  E  E  E  E  E  E  E     E   E  E  E  E  E  E  E   
--------------------------|---------------------------|
--------------------------|---------------------------|
-----7--7--7--7--7--7--7--|--5h--7--7-----------------|
--0-----------------------|------------5-----5--5--5--|


  E   E  E  E  E  E  E  E     E  E  E  E  E  E  Q     
---------------------------|-------------------------|
---------------------------|-------------------------|
--5h--7--7--7--7--7--7--7--|-----------0--2--3--2----|
---------------------------|--0--2--3----------------|


  E  E  E  E  E  E  E  E     E   E  E  E  E  E  E  E   
--------------------------|---------------------------|
--------------------------|---------------------------|
--7--7--7--7--7--7--7--7--|--5h--7--7-----------------|
--------------------------|------------5-----5--5--5--|


  E  E  E  E  E  E  E  E     E  E  E  E  E  E  E  E   
--------------------------|--------------------------|
--------------------------|--3--2-----------------2--|
--7--7--7--7--7--7--7--7--|--------5--3--2--3--5-----|
--------------------------|--------------------------|


  E  E  E  E  E  E  E  E     E   E  E  E  E  E  E  E   
--------------------------|---------------------------|
--------------------------|---------------------------|
-----7--7--7--7--7--7--7--|--5h--7--7-----------------|
--0-----------------------|------------5-----5--5--5--|


  E  E  E  E  E  E  E  E     E  E  E  E  E  E  E  E   
--------------------------|--------------------------|
--------------------------|--------------------------|
--7--7--7--7--7--7--7--7--|-----------0--2--3--2--3--|
--------------------------|--0--2--3-----------------|


  E  E  E  E  E  E  E  E     E  E  E  E  E  E  E  E   
--------------------------|--------------------------|
--------------------------|--------------------------|
--L--3--3--3--3--2--3--5--|--L--5--5--5--5--5--3--2--|
--------------------------|--------------------------|


  E  E  E  E  E  E  E  E     E  E  E  E  E  E  E  E   
--------------------------|--------------------------|
--------------------------|--------------------------|
--L--2--2--2--2--2--5--7--|--L--7--7--5--L--5--5--3--|
--------------------------|--------------------------|


  E  E  E  E  E  E  E  E     E  E  E  E  E  E  E  E     E  Q    E  Q    E  E   
--------------------------|--------------------------|------------------------|
--------------------------|--------------------------|------------------------|
--L--3--3--3--3--2--3--5--|--L--5--5--5--5--3--2--0--|--2-------2-------2-----|
--------------------------|--------------------------|------------------------|


  E  E  Q    E  E  E  E     E  E  E  E  E  E  E  E   
-------------------------|--------------------------|
-------------------------|--------------------------|
-----2-------2-----------|-----------7--7--7--7--7--|
----------------3--2--0--|--L--0--0-----------------|


  E   E  E  E  E  E  E  E     E   E  E  E  E  E  E  E   
---------------------------|---------------------------|
---------------------------|---------------------------|
--5h--7--7-----------------|--5h--7--7--7--7--7--7--7--|
------------5-----5--5--5--|---------------------------|


  E  E  E  E  E  E  E  E     E  E  E  E  E  E  E  E   
--------------------------|--------------------------|
--3--2-----------------2--|--------------------------|
--------5--3--2--3--5-----|-----7--7--7--7--7--7--7--|
--------------------------|--0-----------------------|


  E   E  E  E  E  E  E  E     E   E  E  E  E  E  E  E   
---------------------------|---------------------------|
---------------------------|---------------------------|
--5h--7--7-----------------|--5h--7--7--7--7--7--7--7--|
------------5-----5--5--5--|---------------------------|


  E  E  E  E  E  E  Q       E  E  E  E  E  E  E  E   
-------------------------|--------------------------|
-------------------------|--------------------------|
-----------0--2--3--2----|--7--7--7--7--7--7--7--7--|
--0--2--3----------------|--------------------------|


  E   E  E  E  E  E  E  E     E  E  E  E  E  E  E  E   
---------------------------|--------------------------|
---------------------------|--------------------------|
--5h--7--7-----------------|--7--7--7--7--7--7--7--7--|
------------5-----5--5--5--|--------------------------|


  E  E  E  E  E  E  E  E     E  E  E  E  E  E  E  E   
--------------------------|--------------------------|
--3--2-----------------2--|--------------------------|
--------5--3--2--3--5-----|-----7--7--7--7--7--7--7--|
--------------------------|--0-----------------------|


  E   E  E  E  E  E  E  E     E  E  E  E  E  E  E  E   
---------------------------|--------------------------|
---------------------------|--------------------------|
--5h--7--7-----------------|--7--7--7--7--7--7--7--7--|
------------5-----5--5--5--|--------------------------|


  E  E  E  E  E  E  E  E     E  E  E  E  E  E  E  E   
--------------------------|--------------------------|
--------------------------|--------------------------|
-----------0--2--3--2--3--|--L--3--3--3--3--2--3--5--|
--0--2--3-----------------|--------------------------|


  E  E  E  E  E  E  E  E     E  E  E  E  E  E  E  E   
--------------------------|--------------------------|
--------------------------|--------------------------|
--L--5--5--5--5--5--3--2--|--L--2--2--2--2--2--5--7--|
--------------------------|--------------------------|


  E  E  E  E  E  E  E  E     E  E  E  E  E  E  E  E   
--------------------------|--------------------------|
--------------------------|--------------------------|
--L--7--7--5--L--5--5--3--|--L--3--3--3--3--2--3--5--|
--------------------------|--------------------------|


  E  E  E  E  E  E  E  E     E  Q    E  Q    E  E     E  E  Q    E  E  E  E   
--------------------------|------------------------|-------------------------|
--------------------------|------------------------|-------------------------|
--L--5--5--5--5--3--2--0--|--2-------2-------2-----|-----2-------2-----2-----|
--------------------------|------------------------|-------------------------|


  E  E  E  E  E  E  E  E     E  E  E  E  E  E  E  E   
--------------------------|--------------------------|
--------------------------|--------------------------|
--------------------------|-----------------------5--|
--0--0--0--0--0--0--0--3--|--3--3--3--3--3--3--3-----|


  E  E  E  E  E  E  E  E     E  E  E  E  Q    Q       E  E  E  E  E  E  E  E   
--------------------------|------------------------|--------------------------|
--------------------------|------------------------|--------------------------|
--5--5--5--5--5--5--5--5--|--7--7--7--7--7----5----|-----------------------5--|
--------------------------|------------------------|--3--3--3--3--3--3--3-----|


  E  E  E  E  E  E  E  E     H        H           H        H         
--------------------------|--------------------|--------------------|
--------------------------|--------------------|--------------------|
--5--5--5--5--5--5--5--5--|--3--------2--------|--------------------|
--------------------------|--------------------|--5--------3--------|


  E  E  E  E  E  E  E  E     E  E  E  E  E  E  E  E   
--------------------------|--------------------------|
--------------------------|--------------------------|
--------------------------|-----------------------5--|
--0--0--0--0--0--0--0--3--|--3--3--3--3--3--3--3-----|


  E  E  E  E  E  E  E  E     E  E  E  E  Q    Q       E  E  E  E  E  E  E  E   
--------------------------|------------------------|--------------------------|
--------------------------|------------------------|--------------------------|
--5--5--5--5--5--5--5--5--|--7--7--7--7--7----5----|-----------------------5--|
--------------------------|------------------------|--3--3--3--3--3--3--3-----|


  E  E  E  E  E  E  E  E     W                   W                 
--------------------------|-------------------|-------------------|
--------------------------|-------------------|-------------------|
--5--5--5--5--5--5--5--5--|--3----------------|--L----------------|
--------------------------|-------------------|-------------------|


  E  E  E  E  E  E  E  E     E  E  E  E  E  E  E  E   
--------------------------|--------------------------|
--------------------------|--------------------------|
--------------------------|--------------------------|
--0--0--0--0--0--0--0--0--|--0--0--0--0--0--0--0--0--|


  E  E  E  E  E  E  E  E     E  E  E  E  H           E  E  E  E  E  E  E  E   
--------------------------|-----------------------|--------------------------|
--------------------------|-----------------------|--------------------------|
--------------------------|-----------------------|--7--7--7--7--7--7--7--7--|
--0--0--0--0--0--0--0--0--|--0--2--3--5-----------|--------------------------|


  E   E  E  E  E  E  E  E     E  E  E  E  E  E  E  E   
---------------------------|--------------------------|
---------------------------|--------------------------|
--5h--7--7-----------------|--7--7--7--7--7--7--7--7--|
------------5-----5--5--5--|--------------------------|


  E  E  E  E  E  E  E  E     E  E  E  E  E  E  E  E   
--------------------------|--------------------------|
--3--2-----------------2--|--------------------------|
--------5--3--2--3--5-----|-----7--7--7--7--7--7--7--|
--------------------------|--0-----------------------|


  E   E  E  E  E  E  E  E     E  E  E  E  E  E  E  E   
---------------------------|--------------------------|
---------------------------|--------------------------|
--5h--7--7-----------------|--7--7--7--7--7--7--7--7--|
------------5-----5--5--5--|--------------------------|


  E  E  E  E  E  E  E  E     E  E  E  E  E  E  E  E   
--------------------------|--------------------------|
--------------------------|--------------------------|
-----------0--2--3--2--3--|--L--3--3--3--3--2--3--5--|
--0--2--3-----------------|--------------------------|


  E  E  E  E  E  E  E  E     E  E  E  E  E  E  E  E   
--------------------------|--------------------------|
--------------------------|--------------------------|
--L--5--5--5--5--5--3--2--|--L--2--2--2--2--2--5--7--|
--------------------------|--------------------------|


  E  E  E  E  E  E  E  E     E  E  E  E  E  E  E  E   
--------------------------|--------------------------|
--------------------------|--------------------------|
--L--7--7--5--L--5--5--3--|--L--3--3--3--3--2--3--5--|
--------------------------|--------------------------|


  E  E  E  E  E  E  E  E     E  Q    E  Q    E  E     E  E  Q    E  E  E  E   
--------------------------|------------------------|-------------------------|
--------------------------|------------------------|-------------------------|
--L--5--5--5--5--3--2--0--|--2-------2-------2-----|-----2-------2-----2-----|
--------------------------|------------------------|-------------------------|


  E  E  E  E  E  E  E  E     E  E  E  E  E  E  E  E   
--------------------------|--------------------------|
--------------------------|--------------------------|
--------------------------|-----------------------5--|
--0--0--0--0--0--0--0--3--|--3--3--3--3--3--3--3-----|


  E  E  E  E  E  E  E  E     E  E  E  E  Q    Q       E  E  E  E  E  E  E  E   
--------------------------|------------------------|--------------------------|
--------------------------|------------------------|--------------------------|
--5--5--5--5--5--5--5--5--|--7--7--7--7--7----5----|-----------------------5--|
--------------------------|------------------------|--3--3--3--3--3--3--3-----|


  E  E  E  E  E  E  E  E     H        H           H        H         
--------------------------|--------------------|--------------------|
--------------------------|--------------------|--------------------|
--5--5--5--5--5--5--5--5--|--3--------2--------|--------------------|
--------------------------|--------------------|--5--------3--------|


  E  E  E  E  E  E  E  E     E  E  E  E  E  E  E  E   
--------------------------|--------------------------|
--------------------------|--------------------------|
--------------------------|-----------------------5--|
--0--0--0--0--0--0--0--3--|--3--3--3--3--3--3--3-----|


  E  E  E  E  E  E  E  E     E  E  E  E  Q    Q       E  E  E  E  E  E  E  E   
--------------------------|------------------------|--------------------------|
--------------------------|------------------------|--------------------------|
--5--5--5--5--5--5--5--5--|--7--7--7--7--7----5----|-----------------------5--|
--------------------------|------------------------|--3--3--3--3--3--3--3-----|


  E  E  E  E  E  E  E  E     W                   H        Q    Q     
--------------------------|-------------------|---------------------|
--------------------------|-------------------|---------------------|
--5--5--5--5--5--5--5--5--|--3----------------|-----------3---------|
--------------------------|-------------------|---------------------|


  E  E  E  E  E  E  E  E     E  E  E  E  E  E  E  E   
--------------------------|--------------------------|
--------------------------|--------------------------|
--0--0--0--0--0--0--0--0--|--0--0--0--0--0--0--0--0--|
--------------------------|--------------------------|


  E  E  E  E  E  E  E  E     E  E  E  E  E  E  E  E   
--------------------------|--------------------------|
--------------------------|--------------2--0--------|
--0--0--0--0--0--0--0--0--|--0--0--0--0--------3--2--|
--------------------------|--------------------------|


  E  E  E  E  E  E  E  E     E  E  E  E  E  E  E  E   
--------------------------|--------------------------|
--------------------------|--------------------------|
--L--2--2--2--2--2--2--2--|--2--2--2--2--2--3--0--2--|
--------------------------|--------------------------|


  E  E  E  E  E  E  E  E     E  E  E  E  E  E  E  E   
--------------------------|--------------------------|
--------------------------|--------------------------|
--L--2--2--2--2--2--2--2--|--2--2--2--2--2--3--0--2--|
--------------------------|--------------------------|


  E  E  E  E  E  E  E  E     E  E  E  E  E  E  E  E   
--------------------------|--------------------------|
--------------------------|--------------------------|
--L--2--2--2--2--2--2--2--|--2--2--2--2--2--3--0--2--|
--------------------------|--------------------------|


  E  E  E  E  E  E  E  E     E  E  E  E  E  E  E  E   
--------------------------|--------------------------|
--------------------------|--------------------------|
--L--2--2--2--2--2--2--2--|--2--2--2--2--2--0--------|
--------------------------|--------------------3--0--|


  E  E  E  E  E  E  E  E     E  E  E  E  E  E  E  E   
--------------------------|--------------------------|
--------------------------|--------------------------|
--------7--7--7--7--7--7--|--7--7--7--7--7--5-----7--|
--L--0--------------------|--------------------7-----|


  E  E  E  E  E  E  E  E     E  E  E  E  E  E  E  E   
--------------------------|--------------------------|
--------------------------|--------------------------|
--L--7--7--7--7--7--7--7--|--7--7--7--7--2--0--------|
--------------------------|--------------------3--0--|


  E  E  E  E  E  E  E  E     E  E  E  E  E  E  E  E   
--------------------------|--------------------------|
--------------------------|--------------------------|
--------7--7--7--7--7--7--|--7--7--7--7--7--5-----7--|
--L--0--------------------|--------------------7-----|


  E  E  E  E  E  E  E  E     E  E  E  E  E  E  E  E   
--------------------------|--------------------------|
--------------------------|--------------2--0--------|
--L--7--7--7--7--7--7--7--|--7--7--7--7--------3--2--|
--------------------------|--------------------------|


  E  E  E  E  E  E  E  E     E  E  E  E  E  E  E  E   
--------------------------|--------------------------|
--------------------------|--------------------------|
--L--2--2--2--2--2--2--2--|--2--2--2--2--2--3--0--2--|
--------------------------|--------------------------|


  E  E  E  E  E  E  E  E     E  E  E  E  E  E  E  E   
--------------------------|--------------------------|
--------------------------|--------------------------|
--L--2--2--2--2--2--2--2--|--2--2--2--2--2--3--0--2--|
--------------------------|--------------------------|


  E  E  E  E  E  E  E  E     E  E  E  E  E  E  E  E     Q    Q    Q    Q     
--------------------------|--------------------------|----------------------|
--------------------------|--------------------------|----------------------|
--L--2--2--2--2--2--2--2--|--2--2--2--2--2--2--2--2--|--2----3----4----5----|
--------------------------|--------------------------|----------------------|


  Q    Q    Q    E  E     E  E  E  E  E  E  E  E     E  E  E  E  E  E  E  E   
-----------------------|--------------------------|--------------------------|
-----------------------|--------------------------|--------------------------|
--6----7----8----9--3--|--L--3--3--3--3--2--3--5--|--L--5--5--5--5--5--3--2--|
-----------------------|--------------------------|--------------------------|


  E  E  E  E  E  E  E  E     E  E  E  E  E  E  E   E   
--------------------------|---------------------------|
--------------------------|---------------------------|
--L--2--2--2--2--2--5--7--|--L--7--7--9--L--9--9--10--|
--------------------------|---------------------------|


  E   E   E   E   E  E  E  E     E  E  E  E  E  E  E  E   
------------------------------|--------------------------|
------------------------------|--------------------------|
--L--10--10--10--10--9--7--9--|--L--9--9--9--9--7--5--3--|
------------------------------|--------------------------|


  E  Q    E  Q    E  E     W                   E  E  E  E  E  E  E  E   
------------------------|-------------------|--------------------------|
------------------------|-------------------|--------------------------|
--2-------2-------2-----|-------------------|--7--7--7--7--7--7--7--7--|
------------------------|-------------------|--------------------------|


  E   E  E  E  E  E  E  E     E  E  E  E  E  E  E  E   
---------------------------|--------------------------|
---------------------------|--------------------------|
--5h--7--7-----------------|--7--7--7--7--7--7--7--7--|
------------5-----5--5--5--|--------------------------|


  E  E  E  E  E  E  E  E     E  E  E  E  E  E  E  E   
--------------------------|--------------------------|
--3--2-----------------2--|--------------------------|
--------5--3--2--3--5-----|-----7--7--7--7--7--7--7--|
--------------------------|--0-----------------------|


  E   E  E  E  E  E  E  E     E  E  E  E  E  E  E  E   
---------------------------|--------------------------|
---------------------------|--------------------------|
--5h--7--7-----------------|--7--7--7--7--7--7--7--7--|
------------5-----5--5--5--|--------------------------|


  E  E  E  E  E  E  E  E     E  E  E  E  E  E  E  E   
--------------------------|--------------------------|
--------------------------|--------------------------|
-----------0--2--3--2--3--|--L--3--3--3--3--2--3--5--|
--0--2--3-----------------|--------------------------|


  E  E  E  E  E  E  E  E     E  E  E  E  E  E  E  E   
--------------------------|--------------------------|
--------------------------|--------------------------|
--L--5--5--5--5--5--3--2--|--L--2--2--2--2--2--5--7--|
--------------------------|--------------------------|


  E  E  E  E  E  E  E  E     E  E  E  E  E  E  E  E   
--------------------------|--------------------------|
--------------------------|--------------------------|
--L--7--7--5--L--5--5--3--|--L--3--3--3--3--2--3--5--|
--------------------------|--------------------------|


  E  E  E  E  E  E  E  E     E  E  H.              W                 
--------------------------|---------------------|-------------------|
--------------------------|---------------------|-------------------|
--L--5--5--5--5--3--2--0--|--2------------------|-------------------|
--------------------------|---------------------|-------------------|


  E  E  E  E  E  E  E  E     E  E  E  E  E  E  E  E   
--------------------------|--------------------------|
--------------------------|--------------------------|
--------------------------|-----------------------5--|
--0--0--0--0--0--0--0--3--|--3--3--3--3--3--3--3-----|


  E  E  E  E  E  E  E  E     E  E  E  E  Q    Q       E  E  E  E  E  E  E  E   
--------------------------|------------------------|--------------------------|
--------------------------|------------------------|--------------------------|
--5--5--5--5--5--5--5--5--|--7--7--7--7--7----5----|-----------------------5--|
--------------------------|------------------------|--3--3--3--3--3--3--3-----|


  E  E  E  E  E  E  E  E     H        H           H        H         
--------------------------|--------------------|--------------------|
--------------------------|--------------------|--------------------|
--5--5--5--5--5--5--5--5--|--3--------2--------|--------------------|
--------------------------|--------------------|--5--------3--------|


  E  E  E  E  E  E  E  E     E  E  E  E  E  E  E  E   
--------------------------|--------------------------|
--------------------------|--------------------------|
--------------------------|-----------------------5--|
--0--0--0--0--0--0--0--3--|--3--3--3--3--3--3--3-----|


  E  E  E  E  E  E  E  E     E  E  E  E  Q    Q       E  E  E  E  E  E  E  E   
--------------------------|------------------------|--------------------------|
--------------------------|------------------------|--------------------------|
--5--5--5--5--5--5--5--5--|--7--7--7--7--7----5----|-----------------------5--|
--------------------------|------------------------|--3--3--3--3--3--3--3-----|


  E  E  E  E  E  E  E  E     H        H           H        H         
--------------------------|--------------------|--------------------|
--------------------------|--------------------|--------------------|
--5--5--5--5--5--5--5--5--|--3--------2--------|--------------------|
--------------------------|--------------------|--5--------3--------|


  Q    Q    E  E  E  E     Q    E  E  E  E  E  E     E  E  E  E  E  E  E  E   
------------------------|-------------------------|--------------------------|
------------------------|-------------------------|--------------------------|
------------------------|-------2-----2--3--2--5--|--L--5--5--5--5--5--5-----|
--0----0----0-----2--3--|--L----------------------|-----------------------0--|


  E  E  Q    Q    Q       Q    Q    E  E  E  E     E  E  E  E  E  E  Q     
-----------------------|------------------------|-------------------------|
-----------------------|------------------------|-------------------------|
-------------7----5----|------------3--2--3--5--|--L--5--5--5--5--7--5----|
--L--0--0--------------|--3----3----------------|-------------------------|


  H        H           H        H           Q    Q    E  E  E  E   
--------------------|--------------------|------------------------|
--------------------|--------------------|------------------------|
--3--------2--------|--------------------|------------------------|
--------------------|--5--------3--------|--0----0----0-----2--3--|


  Q    E  E  E  E  E  E     E  E  E  E  E  E  E  E     E  E  Q    Q    Q     
-------------------------|--------------------------|-----------------------|
-------------------------|--------------------------|-----------------------|
-------2-----2--3--2--5--|--L--5--5--5--5--5--5-----|--------7----7----5----|
--L----------------------|-----------------------0--|--L--0-----------------|


  Q    Q    E  E  E  E     E  E  E  E  E  E  Q       W                 
------------------------|-------------------------|-------------------|
------------------------|-------------------------|-------------------|
------------3--2--3--5--|--L--5--5--5--5--7--5----|--3----------------|
--3----3----------------|-------------------------|-------------------|


  Q    E  E  E  E  E  E      E  E  H.             
--------------------------|---------------------||
-------4-----5--4---------|---------------------||
--L----------------5--7\--|--L------------------||
--------------------------|---------------------||




Duration Legend
---------------
W - whole
H - half
Q - quarter
E - 8th
S - 16th
T - 32nd
X - 64th
. - note dotted
|-n-|  - n-tuplets


Tablature Legend
----------------
L - tied note
x - dead note
g - grace note
(n) - ghost note
> - accentuded note
NH - natural harmonic
AH - artificial harmonic
TH - tapped harmonic
SH - semi harmonic
PH - pitch harmonic
h - hammer on
p - pull off
b - bend
br - bendRelease
pb - preBend
pbr - preBendRelease
brb - bendReleaseBend
\n/ - tremolo bar dip
\n - tremolo bar dive
-/n - tremolo bar Release up
/n\ - tremolo bar inverted dip
/n - tremolo bar return
-\n - tremolo bar Release down
S - shift slide
s - legato slide
/ -  slide into from below or out of upwards
\ -  slide into from above or out of downwards
~ - vibrato
W - wide vibrato
tr - trill
TP - tremolo picking
T - tapping
S - slap
P - pop
< - fade in
^ - brush up
v - brush down





Comments


Popular Accept tabs & chords
Another Second To Be Bass Tabs
Balls To The Wall 1 Bass Tabs
Midnight Mover Bass Tabs
Neon Lights Bass Tabs
Breaking Up Again Chords
Dead On Tabs
Fast As A Shark 1 Tabs
Helldriver Tabs
Metal Heart 1 Tabs
Teutonic Terror Tabs


Song lyrics



↑ Back to top | Tablatures and chords are parodies/interpretations of the original songs. You may use it for private study, scholarship, research or language learning purposes only
© 2014 AZChords.com Contact us | Privacy policy | DMCA | Add/correct tabs | Request tabs | Top 50 tabs