>
 >
London Leatherboys

London Leatherboys Bass Tabs

Accept - London Leatherboys chords, tabs, tablatures, lyrics

Guitar lessons | Add/correct | Request | Top 50 tabs Artists:  A B C D E F G H I J K L M N O P Q R S T U V W X Y Z 0-9

London Leatherboys Bass Tabs – Accept

CD, Sheet music, Poster

Do you like London Leatherboys? Share with your friends now
Bass TabsBass Tabs v2
                              London Leatherboys                                


                                                                          Accept
Bass



     W                   H.           S S E     S E.  H        S S E   
G||-------------------|----------------------|------------------------|
D||-------------------|----------------------|------------------------|
A||-------------------|----------------------|------------------------|
E||-------------------|-----------------2-0--|--2----------------2-0--|


  S E.  H        Q         H        S S S S S S S S    E  E  E  E  E  E  E  E   
-----------------------|----------------------------|--------------------------|
-----------------------|----------------------------|--------------------------|
-----------------------|------------0-2-4-4-2-0-----|--------------------------|
--2--------------2S----|--14--------------------2-0-|--0--2--2--2--2--2--2--2--|


  E  E  E  E  E  E  S E.     E  E  E  E  E  E  E  E   
--------------------------|--------------------------|
--------------------------|--------------------------|
--------------------------|--------------------------|
--2--2--2--2--2--2--2-0---|--2--2--2--2--2--2--2--2--|


  E  E  E  E  S S S E.  E      E  E  E  E  E  E  E  E   
----------------------------|--------------------------|
----------------------------|--------------------------|
----------------7-7-7---7S--|--------------------------|
--2--2--2--2--0-------------|--0--2--2--2--2--2--2--2--|


  E  E  E  E  E  E  E  E     E  E  E  E  E  E  E  E   
--------------------------|--------------------------|
--------------------------|--------------------------|
--------------------------|--------------------------|
--2--2--2--2--2--2--2--2--|--2--2--2--2--2--2--2--2--|


  E  E  E  E  E  S Q    S    E  E  E  E  E  E  E  E   
--------------------------|--------------------------|
--------------------------|--------------------------|
--------------7-----------|--2--2--2--L--5--5--5--L--|
--2--2--2--2-----0-3----L-|--------------------------|


  E  E  E  S Q    S E  E     E  E  E  E  E  E  E  E   
--------------------------|--------------------------|
--------------------------|--------------------------|
--0--0--0----2----L----0--|--2--2--2--L--5--5--5--5--|
--------------------2-----|--------------------------|


  E  E  E  S E.  E  E  E     E  E  E  E  E  E  E  E   
--------------------------|--------------------------|
--------------------------|--------------------------|
-----7--7-----------5--0--|--2--2--2--L--5--5--5--L--|
--0--------0-2---2--------|--------------------------|


  E  E  E  S Q    S E  S S    E  S S E  S S E  E   Q      
---------------------------|-----------------------------|
---------------------------|-----------------------------|
--0--0--0----2----L-2------|-----------------------------|
-----------------------0-2-|--3--3-3-3--3-0-0--0--12\----|


  E  E  E  E  E  E  E  E     E  E  E  E  E  E  E  E   
--------------------------|--------------------------|
--------------------------|--------------------------|
--------------------------|--------------------------|
--0--2--2--2--2--2--2--2--|--2--2--2--2--2--2--2--2--|


  E  E  E  E  E  E  E  E     E  E  E  E  E.  E.  E     E  E  E  E  E  E  E  E   
--------------------------|-------------------------|--------------------------|
--------------------------|-------------------------|--------------------------|
--------------------------|------------------7---L--|--2--2--2--L--5--5--5--L--|
--2--2--2--2--2--2--2--2--|--2--2--2--2--0----------|--------------------------|


  E  E  E  S Q    S E  E     E  E  E  E  E  E  E  E   
--------------------------|--------------------------|
--------------------------|--------------------------|
--0--0--7----2----L----0--|--2--2--2--L--5--5--5--L--|
--------------------2-----|--------------------------|


  E  E  E  S E.  E  E  E     E  E  E  E  E  E  E  E   
--------------------------|--------------------------|
--------------------------|--------------------------|
-----7--7-----------5--0--|--2--2--2--L--5--5--5--L--|
--0--------0-2---2--------|--------------------------|


  E  E  E  S Q    S E  S S    E  S S E  S S E  S S  Q      
---------------------------|------------------------------|
---------------------------|------------------------------|
--0--0--7----2----L-2------|------------------------------|
-----------------------0-2-|--3--3-3-3--0-0-0--0-0-12\----|


  S E.  H.              E  E  S S E  E  E  Q       E  E  S S E  E  E  Q     
---------------------|--------------------------|--------------------------|
---------------------|--------------------------|--------------------------|
---------------------|--2--2--2-2-2--2--5--7----|--2--2--2-2-2--2--5--0----|
--2------------------|--------------------------|--------------------------|


  E  E  S S E  E  E  Q       Q     Q.     E    E   E    
--------------------------|----------------------------|
--------------------------|----------------------------|
--2--2--2-2-2--2--5--7----|---------------2s--10-------|
--------------------------|--7S----3--------------10\--|


  E  E  E  E  E  E  E  E     E  E  E  E  E  E  S E.   
--------------------------|--------------------------|
--------------------------|--------------------------|
--------------------------|--------------------------|
--0--2--2--2--2--2--2--2--|--2--2--2--2--2--2--2-0---|


  E  E  E  E  E  E  E  E     E  E  E  E  E.  E.  E    
--------------------------|--------------------------|
--------------------------|--------------------------|
--------------------------|--------------7---7---7S--|
--2--2--2--2--2--2--2--2--|--2--2--2--2--------------|


  E  E  E  E  E  E  E  E     E  E  E  E  E  E  E  E   
--------------------------|--------------------------|
--------------------------|--------------------------|
--------------------------|--------------------------|
--0--2--2--2--2--2--2--2--|--2--2--2--2--2--2--2--2--|


  E  E  E  E  E  E  E  E     E  E  E  E  E  S Q    S  
--------------------------|--------------------------|
--------------------------|--------------------------|
--------------------------|--------------7-----------|
--2--2--2--2--2--2--2--2--|--2--2--2--2-----0-3----L-|


  E  E  E  E  E  E  E  E     E  E  E  S Q    S E  E   
--------------------------|--------------------------|
--------------------------|--------------------------|
--2--2--2--L--5--5--5--L--|--0--0--7----2----L----0--|
--------------------------|--------------------2-----|


  E  E  E  E  E  E  E  E     E  E  E  S E.  E  E  E   
--------------------------|--------------------------|
--------------------------|--------------------------|
--2--2--2--L--5--5--5--L--|-----7--------------5--0--|
--------------------------|--0-----0--0-2---2--------|


  E  E  E  E  E  E  E  E     E  E  E  S Q    S E  S S  
--------------------------|---------------------------|
--------------------------|---------------------------|
--2--2--2--L--5--5--5--L--|--0--0--7--0-2----L-2------|
--------------------------|-----------------------0-2-|


  E  S S E  S S E  S S Q        S E.  H.              E  E  S S S S E  E  Q     
-----------------------------|---------------------|---------------------------|
-----------------------------|---------------------|---------------------------|
-----------------------7\----|---------------------|--2--2--2-2-2-2-2--5--7----|
--3--3-3-3--3-0-0--0-0-------|--2------------------|---------------------------|


  E  E  S S S S E  E  Q       E  E  S S S S E  E  Q     
---------------------------|---------------------------|
---------------------------|---------------------------|
--2--2--2-2-2-2-2--5--0----|--2--2--2-2-2-2-2--5--7----|
---------------------------|---------------------------|


  Q     Q.     E    E   E      S S S S S S S S S S S S S S S S  
----------------------------|----------------------------------|
----------------------------|----------------------------------|
---------------2S--10-------|----------------------------------|
--7S----3--------------10\--|--0-2-2-2-2-2-2-2-2-2-2-2-2-2-2-2-|


  S S S S S S S S S S S S S S S S    S S S S S S S S S S S S S S S S  
----------------------------------|----------------------------------|
----------------------------------|----------------------------------|
----------------------------------|----------------------------------|
--2-2-2-2-2-2-2-2-2-0-2-2-2-2-2-2-|--2-2-2-2-2-2-2-2-2-2-2-2-2-2-2-2-|


  S S S S S S S S E  S S E  E      S S S S S S S S S S S S S S S S  
--------------------------------|----------------------------------|
--------------------------------|----------------------------------|
------------------7----9-L--9S--|----------------------------------|
--2-2-2-2-2-2-2-2----0----------|--0-2-2-2-2-2-2-2-2-2-2-2-2-2-2-2-|


  S S S S S S S S S S S S S S S S    S S S S S S S S S S S S S S S S  
----------------------------------|----------------------------------|
----------------------------------|----------------------------------|
----------------------------------|----------------------------------|
--2-2-2-2-2-2-2-2-2-0-2-2-2-2-2-2-|--2-2-2-2-2-2-2-2-2-2-2-2-2-2-2-2-|


  S S S S S S S S E  S E  E.     H        E  S E  E.     H        E  S E  E.   
------------------------------|-----------------------|-----------------------|
------------------------------|-----------------------|-----------------------|
------------------------------|-----------------------|-----------------------|
--2-2-2-2-2-2-2-2-0--0-2------|-----------0--0-2------|-----------0--0-2------|


  H        E  S E  E.     E  S E  E.  E  S S S S S S  
-----------------------|-----------------------------|
-----------------------|-----------------------------|
-----------------------|-------0------0----0-2-2-2-2-|
-----------0--0-2------|--2--2-----------------------|


  S S S S S S S S S S S S S S S S    S S S S S S S S S S S S S S S S  
----------------------------------|----------------------------------|
----------------------------------|----------------------------------|
--2-2-2-2-2-2-2-2-2-2-2-2-2-2-2-2-|--2-2-2-2-2-0-2-2-2-2-2-2-2-2-2-2-|
----------------------------------|----------------------------------|


  S S S S S S S S S S S S S S S S    S S S S E  S E.  E   S S S S  
----------------------------------|-------------------------------|
----------------------------------|----------7----9---9S----------|
--2-2-2-2-2-2-2-2-2-2-2-2-2-2-2-2-|--2-2-2-2----0---------2-2-2-2-|
----------------------------------|-------------------------------|


  S S S S S S S S S S S S S S S S    S S S S S S S S S S S S S S S S  
----------------------------------|----------------------------------|
----------------------------------|----------------------------------|
--2-2-2-2-2-2-2-2-2-2-2-2-2-2-2-2-|--2-2-2-2-2-0-2-2-2-2-2-2-2-2-2-2-|
----------------------------------|----------------------------------|


  S S S S S S S S S S S S S S S S    S S S S E  S E  Q.     S  
----------------------------------|---------------------------|
----------------------------------|---------------------------|
--2-2-2-2-2-2-2-2-2-2-2-2-2-2-2-2-|--2-2-2-2-0--0-2-----------|
----------------------------------|---------------------------|


  Q    E  S S H           Q    E  S S H           Q    E  S S Q    Q     
-----------------------|-----------------------|------------------------|
-----------------------|-----------------------|------------------------|
-----------------------|-----------------------|------------------------|
-------0--0-2----------|-------0--0-2----------|-------0--0-2------5----|


  W                   W                   E  E  S S S S E  E  Q     
-------------------|-------------------|---------------------------|
-------------------|-------------------|---------------------------|
-------------------|-------------------|--2--2--2-2-2-2-2--5--7----|
--L----------------|--L----------------|---------------------------|


  E  E  S S S S E  E  Q       E  E  S S S S E  E  Q       Q     H.            
---------------------------|---------------------------|---------------------|
---------------------------|---------------------------|---------------------|
--2--2--2-2-2-2-2--5--0----|--2--2--2-2-2-2-2--5--7----|---------------------|
---------------------------|---------------------------|--7S----3------------|


  E  E  E  S S E  E  Q       E  E  E  S S E  E  Q     
--------------------------|--------------------------|
--------------------------|--------------------------|
--2--2--2--2-2-2--5--7----|--2--2--2--2-2-2--5--0----|
--------------------------|--------------------------|


  E  E  E  S S E  E  Q       Q     H.              E  S S E  S S E  S S E  S S  
--------------------------|---------------------|------------------------------|
--------------------------|---------------------|------------------------------|
--2--2--2--2-2-2--5--7----|---------------------|--2--2-2-2--2-2-2--5---7------|
--------------------------|--7S----3------------|--------------------------0-0-|


  E  S S E  S S E  S S E  S S    E  S S E  S S E  S S E  S S  
------------------------------|------------------------------|
------------------------------|------------------------------|
--2--2-2-2--2-2-2--5---0--0-0-|--2--2-2-2--2-2-2--5---7------|
------------------------------|--------------------------0-0-|


  Q     H.              S S S S S S S S S S E  Q     
---------------------|------------------------------|
---------------------|------------------------------|
---------------------|--2-2-2-2-2-2-2-2-2-2-5--7----|
--7S----3------------|------------------------------|


  S S S S S S S S S S E  Q       S S S S S S S S S S E  Q     
------------------------------|------------------------------|
------------------------------|------------------------------|
--2-2-2-2-2-2-2-2-2-2-5--0----|--2-2-2-2-2-2-2-2-2-2-5--7----|
------------------------------|------------------------------|


  Q     H.              Q    S S S S S S S S Q      
---------------------|----------------------------||
---------------------|---------0------------------||
---------------------|-----------4-2-4-2-0-2------||
--7S----3------------|--L----L--------------------||




Duration Legend
---------------
W - whole
H - half
Q - quarter
E - 8th
S - 16th
T - 32nd
X - 64th
. - note dotted
|-n-|  - n-tuplets


Tablature Legend
----------------
L - tied note
x - dead note
g - grace note
(n) - ghost note
> - accentuded note
NH - natural harmonic
AH - artificial harmonic
TH - tapped harmonic
SH - semi harmonic
PH - pitch harmonic
h - hammer on
p - pull off
b - bend
br - bendRelease
pb - preBend
pbr - preBendRelease
brb - bendReleaseBend
\n/ - tremolo bar dip
\n - tremolo bar dive
-/n - tremolo bar Release up
/n\ - tremolo bar inverted dip
/n - tremolo bar return
-\n - tremolo bar Release down
S - shift slide
s - legato slide
/ -  slide into from below or out of upwards
\ -  slide into from above or out of downwards
~ - vibrato
W - wide vibrato
tr - trill
TP - tremolo picking
T - tapping
S - slap
P - pop
< - fade in
^ - brush up
v - brush down





Comments


Popular Accept tabs & chords
Balls To The Wall Bass Tabs
China Lady Bass Tabs
Metal Heart Bass Tabs
Fast As A Shark Drum Tabs
Head Over Heels Tabs
Hellhammer Tabs
Midnight Highway Tabs
Restless And Wild Tabs
Stalingrad Tabs
Stalingrad 1 Tabs


Song lyrics



↑ Back to top | Tablatures and chords are parodies/interpretations of the original songs. You may use it for private study, scholarship, research or language learning purposes only
© 2014 AZChords.com Contact us | Privacy policy | DMCA | Add/correct tabs | Request tabs | Top 50 tabs