>
 >
Donation

Donation Bass Tabs

Accept - Donation chords, tabs, tablatures, lyrics

Guitar lessons | Add/correct | Request | Top 50 tabs Artists:  A B C D E F G H I J K L M N O P Q R S T U V W X Y Z 0-9

Donation Bass Tabs – Accept

CD, Sheet music, Poster

Do you like Donation? Share with your friends now
Bass Tabs
                                   Donation                                     


                                                                          Accept
Bass



     W                   W                   W                 
G||-------------------|-------------------|-------------------|
D||-------------------|-------------------|-------------------|
A||-------------------|-------------------|-------------------|
E||-------------------|-------------------|-------------------|


  W                   W                   W                   W                 
-------------------|-------------------|-------------------|-------------------|
-------------------|-------------------|-------------------|-------------------|
-------------------|-------------------|-------------------|-------------------|
-------------------|-------------------|-------------------|-------------------|


  W                   W                   W                   W                 
-------------------|-------------------|-------------------|-------------------|
-------------------|-------------------|-------------------|-------------------|
-------------------|-------------------|-------------------|-------------------|
-------------------|-------------------|-------------------|-------------------|


  W                   W                   W                   W                 
-------------------|-------------------|-------------------|-------------------|
-------------------|-------------------|-------------------|-------------------|
-------------------|-------------------|-------------------|-------------------|
-------------------|-------------------|-------------------|-------------------|


  W                   W                   W                   W                 
-------------------|-------------------|-------------------|-------------------|
-------------------|-------------------|-------------------|-------------------|
-------------------|-------------------|-------------------|-------------------|
-------------------|-------------------|-------------------|-------------------|


  W                   W                   Q    E  E  E  E  E  E   
-------------------|-------------------|-------------------------|
-------------------|-------------------|-------------------------|
-------------------|-------------------|-------3--3--3--------1--|
-------------------|-------------------|----------------1--3-----|


  Q    E  E  E  E  E  E     E  E  E  E  E  E  E  E     E  E  E  E  E  E  E  E   
-------------------------|--------------------------|--------------------------|
-------------------------|--------0--1--3-----------|--------------------------|
--3----3--3--3-----3--0--|--1--1-----------0--1--3--|--3--3--3--3--3--------1--|
----------------1--------|--------------------------|-----------------1--3-----|


  E  E  E  E  E  E  E  E     Q    E  E  E  E  E  E     E  E  E  E  E  E  E  E   
--------------------------|-------------------------|--------------------------|
--------------------------|-------------------------|--------0--1--3-----------|
--3--3--3--3--3--------1--|--3----3--3--3-----3--0--|--1--1-----------0--1--3--|
-----------------1--3-----|----------------1--------|--------------------------|


  E  E  E  E  E  E  E  E       W                    W                 
---------------------------|---------------------|-------------------|
-----------------------3s--|--10\----------------|-------------------|
--L--3--3--3--3-----3------|---------------------|-------------------|
-----------------1---------|---------------------|-------------------|


  W                   W                   E  E  E  E  E  E  E  E   
-------------------|-------------------|--------------------------|
-------------------|-------------------|--------------------------|
-------------------|-------------------|--3--3--3--3--3--3--3--3--|
-------------------|-------------------|--------------------------|


  E  E  E  E  E  E  E  E     E  E  E  E  E  E  E  E   
--------------------------|--------------------------|
--------------------------|--------------------------|
--3--3--3--3--3--3--3--1--|--1--1--1--1--1--1--1--3--|
--------------------------|--------------------------|


  E  E  E  E  E  E  E  E     E  E  E  E  E  E  E  E   
--------------------------|--------------------------|
--------------------------|--------------------------|
--3--3--3--3--3--3--3--3--|--3--3--3--3--3--3--3--3--|
--------------------------|--------------------------|


  E  E  E  E  E  E  E  E     E  E  E  E  E  E  E  E   
--------------------------|--------------------------|
--------------------------|--------------------------|
--3--3--3--3--3--3--3--1--|--1--1--1--1--1--1--1--3--|
--------------------------|--------------------------|


  E  E  E  E  E  E  E  E     E  E  E  E  E  E  E  E   
--------------------------|--------------------------|
--------------------------|--------------------------|
--3--3--3--3--3--3--3--3--|--3--3--3--3--3--3--3--3--|
--------------------------|--------------------------|


  E  E  E  E  E  E  E  E     E  E  E  E  E  E  E  E   
--------------------------|--------------------------|
--------------------------|--------------------------|
--3--3--3--3--3--3--3--1--|--1--1--1--1--1--1--1--3--|
--------------------------|--------------------------|


  E  E  E  E  E  E  E  E     E  E  E  E  E  E  E  E   
--------------------------|--------------------------|
--------------------------|--------------------------|
--3--3--3--3--3--3--3--3--|--3--3--3--3--3--3--3--3--|
--------------------------|--------------------------|


  E  E  E  E  E  E  E  E     E  E  E  E  E  E  E  E     W                 
--------------------------|--------------------------|-------------------|
--------------------------|--------------------------|-------------------|
--3--3--3--3--3--3--3--1--|--1--1--1--1--1--1--1-----|-------------------|
--------------------------|-----------------------1--|--L----------------|


  W                   Q    E  E  E  E  E  E     Q    E  E  E  E  E  E   
-------------------|-------------------------|-------------------------|
-------------------|-------------------------|-------------------------|
-------------------|-------3--3--3--------1--|--3----3--3--3-----3--0--|
--L----------------|----------------1--3-----|----------------1--------|


  E  E  E  E  E  E  E  E     E  E  E  E  E  E  E  E   
--------------------------|--------------------------|
--------0--1--3-----------|--------------------------|
--1--1-----------0--1--3--|--3--3--3--3--3--------1--|
--------------------------|-----------------1--3-----|


  E  E  E  E  E  E  E  E     Q    E  E  E  E  E  E     E  E  E  E  E  E  E  E   
--------------------------|-------------------------|--------------------------|
--------------------------|-------------------------|--------0--1--3-----------|
--3--3--3--3--3--------1--|--3----3--3--3-----3--0--|--1--1-----------0--1--3--|
-----------------1--3-----|----------------1--------|--------------------------|


  E  E  E  E  E  E  E  E     E  E  E  E  E  E  E  E     Q    E  E  E  E  E  E   
--------3-----3-----------|--------------------------|-------------------------|
-----------------3--2-----|--------------------------|-------------------------|
--3--3-----3-----------3--|--3-----3--3--3--------1--|--3----3--3--3-----3--0--|
--------------------------|-----3-----------1--3-----|----------------1--------|


  E  E  E  E  E  E  E  E     E  E  E  E  E  E  E  E   
--------------------------|--------------------------|
--------0--1--3-----------|--------------------------|
--1--1-----------0--1--3--|--3--1--0--------------0--|
--------------------------|-----------3--0--1--3-----|


  E  E  E  E  E  E  E  E     Q    E  E  E  E  E  E     E  E  E  E  E  E  E  E   
--------------------------|-------------------------|--------------------------|
--------------------------|-------------------------|--------0--1--3-----------|
--3--3--3--3--3--------1--|--3----3--3--3-----3--0--|--1--1-----------0--1--3--|
-----------------1--3-----|----------------1--------|--------------------------|


  E  E  E  E  E  E  E  E     H        Q    E  E     W                 
--------------------------|----------------------|-------------------|
--------------------------|----------------------|-------------------|
--L--3--3--3--3-----3--0--|--1----------------3--|--L----------------|
-----------------1--------|-----------1----------|-------------------|


  H        Q    E  E     W                   H.           E  E   
----------------------|-------------------|---------------------|
----------------------|-------------------|---------------------|
--1--------0----------|-------------------|------------------3--|
-------------------1--|--L----------------|--L------------L-----|


  E  E  E  E  E  E  E  E     E  E  E  E  E  E  E  E   
--------------------------|--------------------------|
--------------------------|--------------------------|
--L--3--3--3--3--3--3--3--|--3--3--3--3--3--3--3--1--|
--------------------------|--------------------------|


  E  E  E  E  E  E  E  E     E  E  E  E  E  E  E  E   
--------------------------|--------------------------|
--------------------------|--------------------------|
--1--1--1--------------3--|--3--3--3--3--3--3--3--3--|
-----------1--1--1--1-----|--------------------------|


  E  E  E  E  E  E  E  E     E  E  E  E  E  E  E  E   
--------------------------|--------------------------|
--------------------------|--------------------------|
--3--3--3--3--3--3--3--3--|--3--3--3--3--3--3--3--1--|
--------------------------|--------------------------|


  E  E  E  E  E  E  E  E     E  E  E  E  E  E  E  E   
--------------------------|--------------------------|
--------------------------|--------------------------|
--1--1--1--------------3--|--3--3--3--3--0--------3--|
-----------1--1--1--1-----|-----------------3--1-----|


  E  E  E  E  E  E  E  E     E  E  E  E  E  E  E  E   
--------------------------|--------------------------|
--------------------------|--------------------------|
--3--3--3--3--3--3--3--3--|--3--3--3--3--3--3--3--1--|
--------------------------|--------------------------|


  E  E  E  E  E  E  E  E     E  E  E  E  E  E  E  E   
--------------------------|--------------------------|
--------------------------|--------------------------|
--1--1--1--------------3--|--3--3--3--3--3--3-----3--|
-----------1--1--1--1-----|--------------------1-----|


  E  E  E  E  E  E  E  E     E  E  E  E  E  E  E  E   
--------------------------|--------------------------|
--------------------------|--------------------------|
--3--3--3--3--3--3--3--3--|--3--3--3--3--3--3--3--1--|
--------------------------|--------------------------|


  E  E  E  E  E  E  E  E     E  E  E  E  E  E  E  E   
--------------------------|--------------------------|
--------------------------|--------------------------|
--1--1--1--------------3--|--L--3--3--3--3--3--3--6--|
-----------1--1--1--1-----|--------------------------|


  E  E  E  E  E  E  E  E     E  E  E  E  E  E  E  E   
--------------------------|--------------------------|
--------------------------|--------------------------|
--L--6--6--6--------------|--------------------------|
--------------6--6--6--4--|--L--4--4--4--4--4--0--1--|


  E  E  E  E  E  E  E  E     E  E  E  E  E  E  E  E   
--------------------------|--------------------------|
--------------------------|--------------------------|
-----------------------3--|--L--------------0--1--6--|
--3--3--3--3--6--6--6-----|-----0--1--0--3-----------|


  E  E  E  E  E  E  E  E     E  E  E  E  E  E  E  E   
--------------------------|--------------------------|
--------------------------|--------------------------|
--L--6--6--6--------------|--------------------------|
--------------6--6--6--4--|--L--4--4--4--4--0--1--3--|


  E  E  E  E  E  E  E  E     E  E  E  E  E  E   E   E   
--------------------------|----------------------------|
--------------------------|----------------------------|
-----------------------1--|--L--1--1--1--1--1S--6S--1--|
--L--3--3--3--3--0--1-----|----------------------------|


  E  E  E  E  E  E  E  E     E  E  E  E  E  E  E  E   
--------------------------|--------------------------|
--------------------------|--------------------------|
--3--3--3--3--3--3--3--3--|--3--3--3--3--3--3--3--3--|
--------------------------|--------------------------|


  E  E  E  E  E  E  E  E     E  E  E  E  E  E  E  E   
--------------------------|--------------------------|
--------------------------|--------------------------|
--3--3--3--3--3--3--3--3--|--3--3--3--3--3--3--3--3--|
--------------------------|--------------------------|


  E  E  E  E  E  E  E  E     E  E  E  E  E  E  E  E   
--------------------------|--------------------------|
--------------------------|--------------------------|
--3--3--3--3--3--3--3--3--|--3--3--3--3--3--3--3--3--|
--------------------------|--------------------------|


  E  E  E  E  E  E  E  E     E  E  E  E  E  E  E  E   
--------------------------|--------------------------|
--------------------------|--------------------------|
--3--3--3--3--3--3--3--3--|--3--3--3--3--3--3--3--3--|
--------------------------|--------------------------|


  E  E  E  E  E  E  E  E     E  E  E  E  E  E  E  E   
--------------------------|--------------------------|
--------------------------|--------------------------|
--3--3--3--3--3--3--3--3--|--3--3--3--3--3--3--3--3--|
--------------------------|--------------------------|


  E  E  E  E  E  E  E  E     E  E  E  E  E  E  E  E   
--------------------------|--------------------------|
--------------------------|--------------------------|
--3--3--3--3--3--3--3--3--|--3--3--3--3--3--3--3--3--|
--------------------------|--------------------------|


  E  E  E  E  E  E  E  E     E  E  E  E  E  E  E  E   
--------------------------|--------------------------|
--------------------------|--------------------------|
--3--3--3--3--3--3--3--3--|--3--3--3--3--3--3--3--3--|
--------------------------|--------------------------|


  E  E  E  E  E  E  E  E     E  E  E  E  E  E  E  E   
--------------------------|--------------------------|
--------------------------|--------------------------|
--3--3--3--3--3--3--3--3--|--3--3--3--3--3--3--3--3--|
--------------------------|--------------------------|


  E  E  E  E  E  E  E  E     E  E  E  E  E  E  E  E   
--------------------------|--------------------------|
--------------------------|--------------------------|
--3--3--3--3--3--3--3--3--|--3--3--3--3--3--3--3--3--|
--------------------------|--------------------------|


  E  E  E  E  E  E  E  E     E  E  E  E  E  E  E  E   
--------------------------|--------------------------|
--------------------------|--------------------------|
--3--3--3--3--3--3--3--3--|--3--3--3--3--3--3--3--3--|
--------------------------|--------------------------|


  E  E  E  E  E  E  E  E     E  E  E  E  E  E  E  E   
--------------------------|--------------------------|
--------------------------|--------------------------|
--3--3--3--3--3--3--3--3--|--3--3--3--3--3--3--3--3--|
--------------------------|--------------------------|


  E  E  E  E  E  E  E  E     E  E  E  E  E  E  E  E   
--------------------------|--------------------------|
--------------------------|--------------------------|
--3--3--3--3--3--3--3--3--|--3--3--3--3--3--3--3--3--|
--------------------------|--------------------------|


  E  E  E  E  E  E  E  E     E  E  E  E  E  E  E  E     E  E  Q.     Q.      
--------------------------|--------------------------|----------------------|
--------------------------|--------------------------|----------------------|
--3--3--3--3--3--3--3--3--|--3--3--3--3--3--3--3--3--|--3--3--1------1------|
--------------------------|--------------------------|----------------------|


  Q.     Q.     Q       Q       Q    E  E  E  E  E  E   
---------------------|-------|-------------------------|
---------------------|-------|-------------------------|
--1------------------|-------|-------3--3--3--------1--|
---------1-----------|-------|----------------1--3-----|


  Q    E  E  E  E  E  E     E  E  E  E  E  E  E  E     E  E  E  E  E  E  E  E   
-------------------------|--------------------------|--------------------------|
-------------------------|--------0--1--3-----------|--------------------------|
--3----3--3--3-----3--0--|--1--1-----------0--1--3--|--3--3--3--3--3--------1--|
----------------1--------|--------------------------|-----------------1--3-----|


  E  E  E  E  E  E  E  E     Q    E  E  E  E  E  E     E  E  E  E  E  E  E  E   
--------------------------|-------------------------|--------------------------|
--------------------------|-------------------------|--------0--1--3-----------|
--3--3--3--3--3--------1--|--3----3--3--3-----3--0--|--1--1-----------0--1--3--|
-----------------1--3-----|----------------1--------|--------------------------|


  E  E  E  E  E  E  E  E     E  E  E  E  E  E  E  E     Q    E  E  E  E  E  E   
--------3-----3-----------|--------------------------|-------------------------|
-----------------3--2-----|--------------------------|-------------------------|
--3--3-----3-----------3--|--3-----3--3--3--------1--|--3----3--3--3-----3--0--|
--------------------------|-----3-----------1--3-----|----------------1--------|


  E  E  E  E  E  E  E  E     E  E  E  E  E  E  E  E   
--------------------------|--------------------------|
--------0--1--3-----------|--------------------------|
--1--1-----------0--1--3--|--3--3--3--3--3-----3--3--|
--------------------------|-----------------1--------|


  E  E  E  E  E  E  E  E     Q    E  E  E  E  E  E     E  E  E  E  E  E  E  E   
--------------------------|-------------------------|--------------------------|
--------------------------|-------------------------|--------0--1--3-----------|
--3--3--3--3--3--------1--|--3----3--3--3-----3--0--|--1--1-----------0--1--3--|
-----------------1--3-----|----------------1--------|--------------------------|


  E  E  E  E  E  E  E  E     W                   H.           E  E   
--------------------------|-------------------|---------------------|
--------------------------|-------------------|---------------------|
--L--3--3--3--3--3--3--3--|--L----------------|--L------------L--1--|
--------------------------|-------------------|---------------------|


  Q.     H        E     W                   Q    S S S S S S S S S S S S  
---------------------|-------------------|-------------------------------|
---------------------|-------------------|-------------------------------|
--L------------------|-------------------|--3----3-3-3-3-3-3-3-3-3-3-3-3-|
---------1--------L--|--L----------------|-------------------------------|


  S S S S S S S S S S S S S S S S    E  E  E  E  E  E  Q     
----------------------------------|-------------------------|
----------------------------------|-------------------------|
--3-3-3-3-3-3-3-3-3-3-3-3-3-3-3-3-|-------------------------|
----------------------------------|--2--3--4--5--6--7--8----|


  S S S S S S S S S S S S S S S S    Q.     H        E     W                 
----------------------------------|---------------------|-------------------|
----------------------------------|---------------------|-------------------|
----------------------------------|---------------------|-------------------|
--8-8-8-8-8-8-8-8-8-8-8-8-8-8-8-8-|--L------8--------8--|--8----------------|


  H        Q    Q       
----------------------||
----------------------||
----------------------||
-----------8----8\----||




Duration Legend
---------------
W - whole
H - half
Q - quarter
E - 8th
S - 16th
T - 32nd
X - 64th
. - note dotted
|-n-|  - n-tuplets


Tablature Legend
----------------
L - tied note
x - dead note
g - grace note
(n) - ghost note
> - accentuded note
NH - natural harmonic
AH - artificial harmonic
TH - tapped harmonic
SH - semi harmonic
PH - pitch harmonic
h - hammer on
p - pull off
b - bend
br - bendRelease
pb - preBend
pbr - preBendRelease
brb - bendReleaseBend
\n/ - tremolo bar dip
\n - tremolo bar dive
-/n - tremolo bar Release up
/n\ - tremolo bar inverted dip
/n - tremolo bar return
-\n - tremolo bar Release down
S - shift slide
s - legato slide
/ -  slide into from below or out of upwards
\ -  slide into from above or out of downwards
~ - vibrato
W - wide vibrato
tr - trill
TP - tremolo picking
T - tapping
S - slap
P - pop
< - fade in
^ - brush up
v - brush down





Comments


Popular Accept tabs & chords
Burning Bass Tabs
I Wanna Be No Hero Bass Tabs
I'm A Rebel Bass Tabs
Neon Lights Bass Tabs
Save Us Bass Tabs
Fast As A Shark Tabs
It's Hard To Find A Way Tabs
Restless And Wild 2 Tabs
Shake Your Heads 1 Tabs
Slaves To Metal Intro Tabs


Song lyrics



↑ Back to top | Tablatures and chords are parodies/interpretations of the original songs. You may use it for private study, scholarship, research or language learning purposes only
© 2014 AZChords.com Contact us | Privacy policy | DMCA | Add/correct tabs | Request tabs | Top 50 tabs